a b c d e f g h i j k l m n o p q r s t u v w x y z 0-9

Yendo De La Cama Al Living

Charly Garcia

			
Van 4 compases en silencio, y luego esta INTRO:

--------------|5535----|----------|5535----------|
-----3355-----|--------|----3355--|--------------|
---55---------|--------|--55------|--------------|
-33-----------|--------|33--------|-------0001122|

--------------|5535----|----------|5535----------|
-----3355-----|--------|----3355--|--------------|
---55---------|--------|--55------|--------------|
-33-----------|--------|33--------|-------0001122|

--------------|5535----|----------|5535----------|
-----3355-----|--------|----3355--|--------------|
---55---------|--------|--55------|--------------|
-33-----------|--------|33--------|--------------|

Podes pasear en limousine...
-------------|------------|-----------|--------------|
-------------|------------|----------3|-------3------|
-----------1-|3333-33-3-2-|-----------|5535-35-53----|
-3333-33-3---|------------|3333-33-3--|----------654-|

O puedes ser un gran campeón...
-------------|------------|--------------|
-------------|------------|-------3------|
-----------1-|3333-335555-|5555-35-53----|
-3333-33-3---|------------|----------654-|

Nuevamente la INTRO.

                               no hay ninguna vibración...
-------------|--------------|-------------|--------------|
-------------|--------------|-------------|--------------|
1111-1-------|3333-33333332-|1111-1-------|3333-33333332-|
--------5--5-|--------------|--------5--5-|--------------|

aunque vives en un mundo de cine...
-------------|--------------|-------------|--------------|
-------------|--------------|-------------|-5------------|
-6-----5-----|-3------------|-3-----5-----|--------------|
-------------|--------------|-------------|--------------|

Nuevamente la INTRO con los solos correspondientes.
En la versión "UNPLUGED" luego vienen solos varios de violín, chelo, teclado, y termina.Fuente: Tus acordes