a b c d e f g h i j k l m n o p q r s t u v w x y z 0-9

Yendo De La Cama Al Living

Charly Garcia

			
Bueno esta es la tab para bajo ya que nadie la habia
presentado.

INTRO:
G-----------------5-5-3-5------------ escuchen el cd para
D--------3-3-5-5--------------------- saber la cantidad
A----5-5----------------------------- de veces que se repite
E-3-3----------------------0-0-1-2--- repite.

VERSOS:
G------------------------3-----
D--------------------3-5---5---
A------3--3--------5-----------
E-3--3------3--3--3------------

G------------------------------
D------------------------------
A------3--3---5--5-------------
E-3--3--------------3-3-3------

ESTRIBILLO:
G------------------------------
D---------------------3-3-5-5-- X3
A-----3--------5-5-------------
E-3-3-----3--3-----------------

CORTE:
G-----------------------------------------
D-----------------------------------------
A--------3----------3----6--5---3-3-3-----
E---6--5-------6--5---------------------3-

REPITE
EL ESTRIBILLO

bueno esto es todo cualquier duda envien un mail

Fuente original ATAME [www.atame.org]
Colaborador original: mathias arduh [el_mejormathi@hotmail.com]

Fuente: tusacordes.com