a b c d e f g h i j k l m n o p q r s t u v w x y z 0-9

Tu Vicio

Charly Garcia

			
Este es el solo del tema, les puse la letra abajo para que 
se guien con el ritmo, no lo canten. Esta perfecto como en el CD




e-----------------------------------------------------------------------------------------------------------
B-----------------------------------------------------------------------------------------------------------
G-----------------------------------------------------------------------------------------------------------
D-----------------------------------------------------------------------------------------------------------
A------------------2-----4---4----2-----4--2--4--2-----------------------------------------------------
E-------2----4--------------------------------------------4----2------4----4-----2------------------------
        Yo     soy  un     vicio    mas    en tu vida      soy  un         vicio      mas

e-----------------------------------------------------------------------------------------------------------
B-----------------------------------------------------------------------------------------------------------
G-----------------------------------------------------------------------------------------------------------
D------2---2------4----6-6----4-------6--4---6--4-----2-----------4----2-----6---4---2--------------
A------------------------------------------------------------------4----------------------------------------
E-----------------------------------------------------------------------------------------------------------
        Por que     no   me   dejas       si es  que   soy tan solo    viiicio,   tu viiiicio 
      


Cualquier cosa, manden mail, Soy Niko de Mar del Plata, ARGENTINA!

Fuente original ATAME [www.atame.org]
Colaborador original: Nicolás De Luca [nicomania@hotmail.com]

Fuente: tusacordes.com