a b c d e f g h i j k l m n o p q r s t u v w x y z 0-9

Raros Peinados Nuevos

Charly Garcia

			
Riff1 G5 C5 x4

Riff1

    G5                      C5
Y si vas a la derecha y cambias hacia la izquierda,
      G5  Riff2
ˇadelante!
      Gm                          C5
Es mejor que estarse quieto es mejor que ser un 
     Gm  Riff2
vigilante.
       Bb                     F          C
Si me gustan las canciones de amor y me gustan esos 
         Cm                 Gm
raros peinados nuevos ya no quiero criticar solo 
 F                  Gm    
quiero ser un enfermero.
Oh oh oh oh oh

Riff1

Y si trabajas al pedo y estas haciendo algo nuevo ˇadelante! 
y si cantas a la luna y perdes la vida en un instante.
Si luchaste por un mundo mejor y te gustan esos raros peinados nuevos, 
no quiero ver al doctor sólo quiero ver al enfermero.

Bsus4                   Dsus2/C        C#7    C7
Dame un poquito de amor, no quiero un toco. 
Dm7               Gm              A7
Quiero algo de razon no quiero un loco , apaga el televisor.

Riff1

Si lo que te gusta es gritar desenchufa el cable del parlante.
El silencio tiene accion el mas cuerdo es el mas delirante.
Me gustaban las canciones de amor, me gustaban esos raros peinados nuevos.
De chiquito fui aviador pero ahora soy un enfermero.
Do do do do do do

Riff1 G5 C5 x12

Referencias

    h=Ligadura
1/4=Estirar 1/4 de nota


e |----------------|
B |---------31/4-|
G |---------31/4-|
D |-----3----------|
A |-3h5---5--------|
E |----------------|
        Riff1

e |---------------------|
B |---------------------|
G |---------------------|
D |-5--3-5-3------------|
A |----------5--3-3-1-3-|
E |---------------------|
       Riff2 Teclado

e |---6--------5------4-----3---1----3----3-----------1---1---0---3---|
B |---6--------5------6-----5---1----3----2-----------3---1---1---4---|
G |---8--------5------4-----3---2----3----0-----------3---2---0---5---|
D |---8--------7------6-----5---0----2----2-------5---3---3---2---5---|
A |---6--------5------4-----3--------2--------5---3---1---3---3---3---|
E |---6--------5------4-----3--------3--------3-------1---1-------3---|
    Bbsus4  Dsus2/C  C#7   C7  Dm7  Gm   A7  G5  C5  Bb   F   C  Cm

Fuente original ATAME [www.atame.org]
Colaborador original: Pablo Benjamin Di Clemente [benya_diclemente@arnet.com.ar]

Fuente: tusacordes.com