a b c d e f g h i j k l m n o p q r s t u v w x y z 0-9

Raros Peinados Nuevos

Charly Garcia

			
Intro x1
|----------------|----------------|----------------|----------------|
|----------------|----------------|----------------|----------------|
|----------------|3-----3-3-------|----------------|3-----3-3-------|
|3-----3-3-------|----------------|3-----3-3-------|----------------|

|----------------|----------------|----------------|----------------|
|----------------|----------------|----------------|----------------|
|----------------|3-----3-3-------|----------------|3-----3-3-------|
|3-----3-3-------|----------------|3-----3-3-------|----------------|

Verso x1
|----------------|----------------|----------------|----------------|
|----------------|----------------|----------------|----------------|
|----------------|3-----3-3-------|----------------|3-----3-3-------|
|3-----3-3-------|----------------|3-----3-3-------|----------------|

|----------------|----------------|----------------|----------------|
|----------------|----------------|----------------|----------------|
|----------------|3-----3-3-------|----------------|----------------|
|3-----3-3-------|----------------|3-----3-3-------|3-----3-3-------|

Estribillo A x1
|----------------|----------------|----------------|----------------|
|----------------|----------------|----------------|----------------|
|1-----1-1-------|----------------|3-----3-3-------|3-----3-3-------|
|----------------|1-----1-1-------|----------------|----------------|

|----------------|----------------|----------------|----------------|
|----------------|----------------|----------------|----------------|
|10----1010------|8-----8-8-------|----------------|3-----3-3-------|
|----------------|------------6---|3-----3-3-------|----------------|

Pre verso x1
|----------------|----------------|
|----------------|----------------|
|----------------|3-----3-3-------|
|3-----3-3-------|----------------|

Verso x1
Estribillo B x1
|----------------|----------------|----------------|----------------|
|----------------|----------------|----------------|----------------|
|1-----1-1-------|----------------|3-----3-3-------|3-----3-3-------|
|----------------|1-----1-1-------|----------------|----------------|

|----------------|----------------|----------------|----------------|
|----------------|----------------|----------------|----------------|
|10----1010------|8-----8-8-------|----------------|----------------|
|----------------|------------6---|3-----3-3-------|3-----3-3-------|

Puente x1
|----------------|----------------|----------------|----------------|
|----------------|----------------|----------------|----------------|
|6-----6-6---5---|------5-5-------|4-----4-4-------|3-----3-3-------|
|----------------|----------------|----------------|----------------|

|----------------|----------------|----------------|----------------|
|--------3-------|----------------|----------------|----------------|
|5-----5---------|----------------|----------------|----------------|
|------------3---|----------------|5-----5-5-------|----------------|

Verso x1
Estribillo B x1
Puente x1
Intro hasta el final
|----------------|----------------|----------------|----------------|
|----------------|----------------|----------------|----------------|
|----------------|3-----3-3-------|----------------|3-----3-3-------|
|3-----3-3-------|----------------|3-----3-3-------|----------------|

Fuente original ATAME [www.atame.org]
Colaborador original: mariano alvarez [alv_jor@yahoo.com.ar]

Fuente: tusacordes.com