a b c d e f g h i j k l m n o p q r s t u v w x y z 0-9

Pubis Angelical

Charly Garcia

			
Esto es básicamente la tab de Pubis Abgelical
de Patricio Mac Adden pato_ma@hotmail.com, a mi
parecer, bastante mejorada en la otra tab está
muy simple y tiene un par de errores, además de que
le falta el puente.
Comentarios y sugerencias bienvenidos y agradecidos.


s = slide
v = vibrato
b = bend


Esta parte se repite dos veces. La primera vez toca 1 en B, y la
segunda toca 2 en G. Después viene el puente que conecta con lo último.



E |--------------------------------------------------------------------------
B |------1-1-1---3-1-------------------------------------------------------
G |----2---2---2-------------------------------------2-2b3-0---------2v----
D |--3-----------------7s5-5s3-0-3-0-5s7s5s3-3-0---0-3---------3-0-3-0-----3-
A |----------------------------------------------3---------------------------
E |--------------------------------------------------------------------------


Puente:


E |-------------------5s3----------
B |-----------------6-----6--------
G |----------5-5--7----------------
D |--3-3-5s7-----------------------
A |--------------------------------
E |--------------------------------


Después:


E |-11-11-11-11-11-11-------------10-12----12-13-
B |-------------------15-13----------------------
G |-------------------------15-14-------14-------
D |----------------------------------------------
A |----------------------------------------------
E |----------------------------------------------


E |-13-13-13-13-13-13-------------10-12----12-13-
B |-------------------16-15----------------------
G |-------------------------15-14-------14-------
D |----------------------------------------------
A |----------------------------------------------
E |----------------------------------------------

Fuente original ATAME [www.atame.org]
Colaborador original: Gabriel [wizardwb1@hotmail.com]

Fuente: tusacordes.com