a b c d e f g h i j k l m n o p q r s t u v w x y z 0-9

Promesas Sobre El Bidet

Charly Garcia

			
Intro

e |------------------------5---|
B |-------------------3---5----|
G |--------------2---3---5-----|
D |--5-3-2----2h3---5---7------|
A |--------5-------------------|
E |----------------------------|


      Gm7              Am7         Dm7
Por favor no hagas promesas sobre el bidet
      Gm7              Am7        Dm7
Por favor no me habras mas los sobres
      Gm7          Am7        Dm7
Por favor yo te prometo te esperare, 
          Bbmaj7         Csus4
si es que paro de correr

Por favor sigue la sombra de mi, bebe
Por favor no bebas mas, no llores
Por favor yo te prometo te cuidare, 
si es que para de llover.

F                     Fm                  Dm7
Por que me tratas tan bien, me tratas tan mal
      Bbmaj7
Vos sabes que no aprendi a vivir
F                 Fm              Dm7
A veces estoy tan bien, estoy tan down

Ebmaj7
Calambres en el alma, 
D5     D5/Db       D5/Db       D5/B
cada cual tiene un trip en el bocho.
   D5/Bb	D5 
Dificil que lleguemos
     Csus4
a ponernos de acuerdo.


Por que me tratas tan mal, me tratas tan bien
Sabes que no aprendi a vivir
A veces estoy tan bien, estoy tan down
Calambres en el alma, 
cada cual tiene un trip en el bocho
Dificil que lleguemos 
a ponernos de acuerdo

Acordes

e |--6-------------------------------------------|
B |--8-------3-----3------3-----3------3-----3---|
G |--7-------2-----2------2-----2------2-----2---|
D |--8-------0-----------------------------------|
A |--6-------------4------3-----2------1-----0---|
E |----------------------------------------------|
    Ebmaj7   D5   D5/Db  D5/C  D5/B  D5/Bb   D5

e |--3----0----1-----1-------3----|
B |--3----1----1-----3-------6----|
G |--3----0----2-----2-------5----|
D |--3----2----0-----3-------5----|
A |--5----0----------1-------3----|
E |--3---------------1-------3----|
    Gm7  Am7  Dm7  Bbmaj7  Csus4

Fuente original ATAME [www.atame.org]
Colaborador original: Pablo Benjamin Di Clemente [pablod@sinectis.com.ar]

Fuente: tusacordes.com