a b c d e f g h i j k l m n o p q r s t u v w x y z 0-9

Popotitos

Charly Garcia

			
1)----------------------------------------------------------
2)----------------------------------------------------------
3)----------------------------------------------------------
4)-------------2-2--------------------------2-2-------------
5)---------2-4----4-4-2-2---------------2-4----4-4-2-2------
6)--0-0-3-4---------------3-4----0-0-3-4---------------3-4--


1)----------------------------------------------------------
2)----------------------------------------------------------
3)------------2-2------------------------2-2----------------
4)---------2-4---4-4-2-2--------------2-4---4-4-2-2---------
5)--0-0-3-4-------------3-4----0-0-3-4-------------3-4------
6)----------------------------------------------------------


1)----------------------------------------------------------
2)----------------------------------------------------------
3)----------------------------------------------------------
4)----1-1--4-4--1-1------------2-2--------------------------
5)-2-2---------------0-0--4-4-------4-4---------------------
6)---------------------------------------0-0-4-4-5-5-6-6-7-7


1)----------------------------------------------------------
2)----------------------------------------------------------
3)----------------------------------------------------------
4)----------------------------------------------------------
5)----------------------------------------------------------
6)-5-6-7----------------------------------------------------

ˇTodo se repite!

Fuente: Tusacordes