a b c d e f g h i j k l m n o p q r s t u v w x y z 0-9

Pasajera En Trance

Charly Garcia

			
esta es una manera personal de tocar este tema de charly
que me encanta, pienso que es uno de sus mejores
tiene unos detalles que note que a las otras les falta

intromedio rapido

1ra parte
e|-----------------------------------------------------------------------
b|-17-13-15---13-15--17-13-15--13-13-15-13--17-13-15--13-17-15-*12-10-8*
g|---------14----------------14---------------------14-----------------
esto va dos veces (lo que va *12-10-8* va mas rapido)

2da parte
e|---------------------------15-15-13-12-13-12-----15
b|13-12-13-12-13-13-12--12-15-----------------13-12--

e|---------------------------15-15
b|13-12-13-12-13-13-12--12-15-----

aqui arranca la letra

verso:
lam           fa    sol
ella esta por embarcar
           rem       fa          sol
quizas consiga un pasaje en la borda
lam            fa   sol
ella esta por despegar
          rem-fa-sol
ella se vaaa...

todos los versos igual (durante los versos en el fondo se
escucha que un teclado lleva la armonia de la voz, esto se
puede hacer con otra guitarra como la 2da parte del intro

coro:
re
pasajera en trance
             sol         fa
pasajera en transito perpetuo

las cuatro veces igual (al final cuando dice aeropuerto
alarga la segunda e dice aeropueeeeeerte y mientras se escucha
un pasaje en la cuerda de si que va de la a do y a re y es asi
b|10-13-15 y luego luego vuelve al intro pero con estos
cambios...)

e|----------------------------------------------------------15
b|17-13-15--13-15--17-13-15--13-13-15-13--17-13-15--13-17-15--
g|--------14---------------14---------------------14----------

se toca primero asi y la segunda vez se toca igual que la primera
la segunda parte se toca igual...

cuando la bateria cambia la tarola por el tambor se hace esto

e|--------------------------------------------------------------
b|17-13-15--13-15--17-13-15--13-15--17-13-15--13-17-15-*12-10-8*
g|--------14---------------14---------------14------------------

nota: durante toda la cancion se escucha en el fondo un teclado
que lleva la melodia de la voz esto se puede hacer con una segunda
guitarra, en el verso va como la 2da parte del intro y en el
coro va asi...

b|------------------------------13-------------
g|11-11-12-14-12-11--11-11-12-14--12-12-10-12-7

creo que eso es todo estoy seguro que tocandola bien suena
casi identico a la version del cd, se aceptan dudas comentarios quejas
es mi 1er tab asi que con piedad.

ando buscando bajista y baterista de entre 15 y 18 años en
tijuana b.c mex con influencias de charly fito calamaro
sui generis etc. para zapar. contactenme

entren a http://artedesuelo.blogspot.com

eso es todo chau. aguante el rock argentino

Fuente original ATAME [www.atame.org]
Colaborador original: arturo valencia [sodamaniac@hotmail.com]

Fuente: tusacordes.com