a b c d e f g h i j k l m n o p q r s t u v w x y z 0-9

Nos Siguen Pegando Abajo

Charly Garcia

			
Intro sin bajo x4

Intro con bajo x4
|----------------|----------------|
|----------------|----------------|
|--------5-------|----------------|
|3---------------|5/3-5/3-0-------|

Verso x1
|----------------|--7-------------|----------------|----------------|
|--5-------------|----------------|--7-------------|----------------|
|------------2-3-|5-----5-5-------|----------------|--7-----7-5~----|
|3-----3-3-5-----|----------0-2-3-|5-----5-5-5-5-5-|0-----0---------|

|----------------|--7-------------|----------------|----------------|
|--5-------------|----------------|--7-------------|----------------|
|------------2-3-|5-----5-5-------|----------------|--7---------0-2-|
|3-----3-3-5-----|----------0-2-3-|5-----5-5-5-5-5-|0-----0---------|

Estribillo x1
|----------------|----------------|----------------|----------------|
|------2-----5---|----------------|----------------|----------------|
|3---------------|------2-----5---|------6-----9---|7-----7-5-----5-|
|----------------|3---3-----------|7---7-----------|----------------|

|----------------|----------------|----------------|----------------|
|----------------|----------------|----------------|----------------|
|3-----3-3-------|----------------|5-----5-------5-|5-5---5-5-5-----|
|------------0-1-|3-----3-3-----3-|----------------|------------5---|

Intro x4
Verso x1
Estribillo x1
Intro con bajo x4
Puente x1
|----------------|     |----------------|----------------|
|----------------|     |----------------|----------------|
|----------------|x4   |3---------------|5-4-5-4-------2-|x
|0-----0---------|     |--------3-3-----|--------5---5---|

Verso x1
Estribillo x1
Intro sin bajo x2
Intro con bajo hasta el final

Fuente original ATAME [www.atame.org]
Colaborador original: mariano alvarez [alv_jor@yahoo.com.ar]

Fuente: tusacordes.com