a b c d e f g h i j k l m n o p q r s t u v w x y z 0-9

Nos Siguen Pegando Abajo

Charly Garcia

			
Afinación : E A D G 	


Intro

 |       |       |       |        |       |       |       |        
|--------------------------------|--------------------------------|
|------------0-------------------|--------------------------------|
|------------------------0-------|--------------------------------|
|3-------------------------------|--------0---------------3-------|

 |       |       |       |        |       |       |       |        
|--------------------------------|--------------------------------|
|----0---------------------------|--------------------------------|
|----------------0-------0-------|--------------------------------|
|--------------------------------|0-------------------------------|




Primera estrofa:

Ella es menor, el es normal...

 |       |       |       |        |       |       |       |        
|----0---------------------------|----7---------------------------|
|--------------------------------|0-----------0---0---------------|
|--------------------0---2---3---|--------------------------------|
|3-----------3---3---------------|--------------------0---2---3---|

 |       |       |       |        |       |       |       |        
|----2---------------------------|--------------------------------|
|--------------------------------|----2---------------0-----------|
|0-----------0---0---0---0---0---|--------------------------------|
|--------------------------------|0-----------0-------------------|

 
estribillo:

miren lo estan golpeando..

 |       |       |       |        |       |       |       |        
|------------------------0-------|--------------------------------|
|------------2-------------------|------------------------0-------|
|3-------------------------------|------------2-------------------|
|--------------------------------|3-------------------------------|

 |       |       |       |        |       |       |       |        
|--------------------------------|--------------------------------|
|------------1-----------4-------|2-----------2---0-----------0---|
|2-------------------------------|--------------------------------|
|--------------------------------|--------------------------------|

 |       |       |       |        |       |       |       |        
|--------------------------------|--------------------------------|
|--------------------------------|--------------------------------|
|3-----------3---3---------------|--------------------------------|
|------------------------0---1---|3-----------3---3-----------3---|

 |       |       |       |        |       |       |       |        
|--------------------------------|--------------------------------|
|0-----------0---------------0---|0---0-------0---0---0-----------|
|--------------------------------|------------------------0-------|
|--------------------------------|--------------------------------|

Fuente original ATAME [www.atame.org]
Colaborador original: Santiago Alujas [alujassan@yahoo.com]

Fuente: tusacordes.com