a b c d e f g h i j k l m n o p q r s t u v w x y z 0-9

No Llores Por Mi Argentina

Charly Garcia

			
*Introducción
E|---------------|    
B|---------------|    
G|---------------|    
D|--3-2-3-2-3-3--|    
A|---------------|    
E|---------------| X3 

|-------------|
|-------------|
|-------------|
|--3-2-3-2-3--|
|-------------|
|-------------|


 2:11                                                                  
|--1h3h1--------------------------------------------------|
|--------2------------------------------------------------|
|----------3-2-------2-------2h3h2---2b3-2b3-2b3-2h3h2----|
|--------------4-2-4---4-2-4-------4-------------------4b-|
|---------------------------------------------------------|
|---------------------------------------------------------|

 2:23
|-------------------------------------------------------------------------
|-------------------------------------------------------------------------
|-----------------------------15-------------15-------------15h17-15------
|15-17-15-17-15-17-15-17-15-17---17-15-15-17----17-15-15-17----------17b--
|-------------------------------------------------------------------------
|-------------------------------------------------------------------------


|--15--15-17-15-17-15-17-------------------------------------------
|------------------------15-17-15-17-15-17-15-17-------------------
|----------------------------------------------- 15-17-15-17-17-15-
|------------------------------------------------------------------
|------------------------------------------------------------------
|------------------------------------------------------------------


                                                   
----------------------------15-------------------------------------------
------------------------15b----15----------------------------------------
-----------------15--17b-----------15-17-15-17-15-17-15-17---------------
-15-15-15--15-17-------------------------------------------17b--15-15-15-
-------------------------------------------------------------------------
-------------------------------------------------------------------------
                                            
-----------15----------------------------|
-------15b---15--------------------------|
-15-17b---------15-17-15-17-15-17-15-17--|
-----------------------------------------|
-----------------------------------------|
-----------------------------------------|

Fuente original ATAME [www.atame.org]
Colaborador original: Pablo Dupont [Pablo_dupont@hotmail.com]

Fuente: tusacordes.com