a b c d e f g h i j k l m n o p q r s t u v w x y z 0-9

No Estaria Mal

Charly Garcia

			
Aca les mando la Intro:

  Mim           La            Sol
e-------------------------------------------------
b-------------------------------------------------
g-------------------------------------------------
d---5---7-5---------4---5-4--------2--3-2---------
a-7---7-----7-5---5---5-----5-3--3---3----3-------
e-------------------------------------------------

  Mim
e-------------------------------------------------
b-------------------------------------------------
g---------------------------0-0-0-0---------------
d-0-2-2-2-2-0-0-0-0-2-2-2-2-0-0-0-0---------------
a-0-2-2-2-2-0-0-0-0-2-2-2-2-----------------------
e-------------------------------------------------

En la transcripción de los acordes de la canción
me olvidé de copiar cómo hago el Mim5 y Mim9, que
a mi gusto, de esa manera suenan bien en el tema.
Aca se los mando:

 Mim5                     Mim9
e-------|--*---|------  e---*---|-------|-------
b-------|------|------  b-------|-------|-------
g-------|------|------  g-------|-------|-------
d--*----|------|------  d---*---|-------|-------
a--*----|------|------  a---*---|-------|-------
e-------|------|------  e-------|-------|-------

Espero que les tan suene bien como me suena a mi,
sino, pues sólo corriganla...Say No More
Mel, te amo!

J:P

Fuente original ATAME [www.atame.org]
Colaborador original: Jean Paul [carpediem_snm@hotmail.com]

Fuente: tusacordes.com