a b c d e f g h i j k l m n o p q r s t u v w x y z 0-9

Mientes

Charly Garcia

			
Intro Riff principal x2


Mientes y yo puedo......

Riff principal
G|---------------------------------
D|-------12-10-9-------------------
A|-5/////-------10-12-12-9-10-10-8-
E|---------------------------------

/////esto significa que me arrastro
hasta tal traste

Si la culpa de todo.......
G|---------------------------------2-4-----------------
D|------------------------------2h4--------------------
A|3-3-2-2-1-1-1-1-5-5-5-0-1-2-2-------3--3-2-2-1-1-1-1-
E|-----------------------------------------------------


|--------------------------------------
|--2-----0h2---2-----0h2---------------
|----2-2---------2-2-------------------
|0-----------0------------5-5-5-555555-


Siempre busacando........riff principal

Cuando miro adentro tuyo.......
G|-------------------------------------------
D|-------------------------------------------
A|-5-55-5-55-------------1-11-1-11--3-33-3-33 
E|------------5-55-5-55----------------------

G|-----------------------------------------------------
D|-----------------------------------------------------
A|-5-55-5-55-------------1-11-1-11---------------------
E|------------5-55-5-55------------3-33-3-33--5-55-5-55


Mientes.....

Cuando miro adentro tuyo........

Mientes......

Fin



Un tema de la hostia

Fuente original ATAME [www.atame.org]
Colaborador original: Martin tummino [tummino@bariloche.com.ar]

Fuente: tusacordes.com