a b c d e f g h i j k l m n o p q r s t u v w x y z 0-9

Me Siento Mucho Mejor

Charly Garcia

			
Introducción:
                  A
G|-----------------------------------|
D|---7-7----5-6-7-----7--------------|
A|-------7---------------7-----7-----|
E|-----------------------------------| x2

Primera Estrofa Canto:

                  A
G|-----------------------------------|
D|---7-7----5-6-7-----7--------------|
A|-------7---------------7-----7-----|
E|-----------------------------------| x2

          E            F#m       D
G|-----------------|---------|--------|
D|-6--6-6---6--6-6-|-4-2-----|--------|
A|-----------------|-----5-4-|2-2-4-2-|
E|-----------------|---------|--------|

             A                 D
G|---------------------|-----------------|
D|-7-7----5-6-7--------|-----------------|
A|-----7---------0-2-4-|5-5-5-5--2-2-2-2-|
E|---------------------|-----------------|

Estribillo:

      A          E           D            G
G|---------|------------|----------|--------------|
D|---------|------------|4-7--4----|-5-5-5-5-5-5--|
A|-0-0-0-0-|7-7-7-7--5-5|--------5-|--------------|
E|---------|------------|----------|--------------|

---------------------------
Segunda Estrofa: IGUAL A LA PRIMERA
---------------------------
Estribillo
---------------------------
Introducción
---------------------------
Solo Teclado esperar hasta que comience el bajo:

       F#                B
G|-----------|-----------------------|
D|--4-4-4-4s-|------s9-9-9-9---------|
A|-----------|-----------------------|
E|-----------|-----------------------|

---------------------------
Después sigue esto:

             A                 D
G|---------------------|-----------------|
D|-7-7----5-6-7--------|-----------------|
A|-----7---------0-2-4-|5-5-5-5--2-2-2-2-|
E|---------------------|-----------------|

---------------------------
Introducción
---------------------------
Repite la primera estrofa y repite el estribillo DOS VECES.
---------------------------

Final:

      A         G        A         G
G|---------|---------|--------|--------|
D|-7-7---7-|-5-5-5-5-|-7-7--7-|-5-5--5-|
A|-----7---|---------|--------|--------|
E|---------|---------|--------|--------|

     F#       G        A
G|--------|--------|--------|
D|--------|--------|--------|
A|--------|--------|--------|
E|-2-2--2-|-3-3--3-|---5----|

s= slide
---------------------------

Espero que les haya servido este tab. Cualquier duda o sugerencia, 
escribime a ejpolo@hotmail.com

Fuente original ATAME [www.atame.org]
Colaborador original: Emiliano Polo [ejpolo@hotmail.com]

Fuente: tusacordes.com