a b c d e f g h i j k l m n o p q r s t u v w x y z 0-9

Los Dinosaurios

Charly Garcia

			
hola yo soy jose casanova
de argentina. esta tab
la mande en base ala version del 10/7/04
que charly hizo en obras. si no la escucharon,
igualmente pueden hacerla en ritmo de rock
solo hay que pensarla. los punteos serian la
melodia del piano
todos los dinasaurios son putos
SAY NO MORE



INTRO

     Riff  1   sobre    C
E-------------------I
B-------3-5/6/5-3---I
G-----5-----------5-I
D---5---------------I
A-3-----------------I
E-------------------I


   Riff2     Gm
E--------------------I
B--------------------I
G---------2-3/5/3----I
D------5----------5--I
A---5----------------I
E-3------------------I

   Riff 3   Bb9
E----------------------I
B-----------1--3-1-----I
G-------3----------3---I
D-----3----------------I
A--1-------------------I
E----------------------I


  RIFF 4
    Am              Em
E------8--5---------3-0------I
B----5------------0----------I
G---5-----------0------------I
D-7---------7-2----------2---I
A----------------------------I
E----------------------------I

  RIFF  5
    Bm               F#m
E-------10-7----------5-2-----I
B-----7-------------2---------I
G---7-------------2-----------I
D-9----------9--4----------4--I
A-----------------------------I
E-----------------------------I



 INTRO
RIFF 1,R2,R3 X2 ,R1

      C
Los amigos del barrio
                 R2
Pueden desaparecer
      Bb9 o R3
Los cantores de radio
                R1
Pueden desaparecer


        C
Los que estan en los diarios
                 R2
Pueden desaparecer
     Bb o R3
La persona que amas
                R1
Pueden desaparecer
           Bb9
Los que estan en el aire
             Am
Pueden desaparecer en el aire
             Ab
Los que estan en la calle
                    Gm        G#5 A5 A#5 B5
Pueden desaparecer en la calle


Los amigos del barrio
Pueden desaparecer
Pero los dinosaurios
              R1PERO SOLO SUS
PRIMERAS 6 NOTAS
Van a desaparecer

 F               Bb
  No estoy tranquilo mi amor
                   Am
Hoy es sabado a la noche
     Gm
Un amigo esta en cana
RIFF 4
Oh mi amor
     F
Desaparece el mundo
F          C
  Si los pesados mi amor
Llevan todo ese monton de
   C/B           Am
Equipaje en la mano
RIFF  5
Oh mi amor
              G
Yo quiero estar liviano
  G                       A
Cuando el mundo tira para abajo
   F#                 Bm
Es mejor estar atado a nada
  G                    D
Imaginen a los dinosaurios
 A      Bm
En la cama

Cuando el mundo tira para abajo...

  SOLO

Los amigos del barrio pueden desaparecer.




chau
suerte

Fuente original ATAME [www.atame.org]
Colaborador original: jose casanova [corol_mata_88@hotmail.com]

Fuente: tusacordes.com