a b c d e f g h i j k l m n o p q r s t u v w x y z 0-9

La Sal No Sala

Charly Garcia

			
1|--------1--------------------------------3^---1---------|
2|----1h3----1-3--3-1p0----------------1/3----3---1--1h3--|
3|--2--------------------2p0-----0--2---------------------|
4|---------------------------0h4--------------------------|
5|--------------------------------------------------------|
6|--------------------------------------------------------|



1|-2h3-0h2--------2h3-0h2----------10---------8--------12-|
2|-2h3-3---1-1h3--2h3-3---3-1-1h3--10---------8---------8-|
3|-------------------------------------10/12-----10/12----|
4|--------------------------------------------------------|
5|--------------------------------------------------------|
6|--------------------------------------------------------|



1|-2h3-0h2--------|
2|-2h3-3---1h3----|
3|---------0h2----|
4|----------------|
5|----------------|
6|----------------|



D5 
Adonde voy no llego 
adonde estoy resbalo 
no es porque sea bueno 
tempoco soy tan malo 
Pero yo se que 
  G7 
La sal no sala 
                    D 
y el azucar no endulza 
    Bm 
La sal no sala 
       G             A 
y el azucar no endulza 

D7 
La madre de mi hermana 
hizo un pacto con Dios 
se inyecto mercurio 
y ahora te lo da a vos 

Siempre supe que

La sal no sala 
y el azucar no endulza 
La sal no sala 
y el azucar no endulza 

F                 C/E 
No soporto la mañana 
      D 
no soporto el sol 
Bm                    G 
estoy harto de mi madre mi hermana 
       A 
estoy harto 

en realidad ni estoy harto

porque
D7 
La chica de la esquina 
ya me trata bien 
ya me da la... 
y ahora me enamore 

Pero sabes que 

La sal no sala 
y el azucar no endulza 
La sal no sala 
y el azucar no endulza 

D7 
La sal no sala 
y el azucar no endulza 

F#5 
  
    G 
La sal no sala 
y el azucar no endulza 
    A 
La sal no sala 
y el azucar no endulza 
    C 
La sal no sala 
y el azucar no endulza 
D7

Fuente original ATAME [www.atame.org]
Colaborador original: Gastón Barbaresi [gbarbaresi@hotmail.com]

Fuente: tusacordes.com