a b c d e f g h i j k l m n o p q r s t u v w x y z 0-9

Influencia

Charly Garcia

			
Intro
G|------------------------------------------|
D|------------------------------------------|
A|-5s7-5s7-5s7-0--0-7-7-0--0----------------|
E|---------------------------0-3-5-5-5s7-5s7|

Riff1
G|----------------------------|
D|----------------------------|
A|----------------------------|
E|-5-0-0-3-5--0-0-3-5---------|
(Al final de la canción arrastra E|-0-5-7-0-5s7-5s7-|)
Riff2
G|----------------------------|
D|----------------------------|
A|----------------------------|
E|-7-5-7-5-7-2-2--------------|

Riff3
G|----------------------------------------------------------|
D|----------------------------------------------------------|
A|----------------------------------------------------------|
E|-7-7-7-7-7-7-7-7-7--5-5-5-5-5-5-5-5-5--3-3-3-3-3-3-3-3----|

Riff4
G|----------------------------|
D|----------------------------|
A|----------------------------|
E|-7-5-3-2--------------------|

En el solo acompaña con
G|-----------------------------------------------------------|
D|-----------------------------------------------------------|
A|-----------------------------------------------------------|
E|-5-5-5-5-5-5-5-5-5-5--4-4-4-4-4-4-4-4--7-7-7-7-7-7-7-7-7-7-|


ESTRUCTURA DEL TEMA:

INTRO

RIFF1 

RIFF2

RIFF1 USA AL FINAL DEL PÁRRAFO EL RIFF4

RIFF3 USA AL FINAL DEL PÁRRAFO EL RIFF4

RIFF1

SOLO

RIFF1

INTRO

RIFF1 

RIFF2

RIFF1

RIFF3 USA AL FINAL DEL PÁRRAFO EL RIFF4

RIFF1

Fuente original ATAME [www.atame.org]
Colaborador original: José Videla [marcoskipps_prosk8er@hotmail.com]

Fuente: tusacordes.com