a b c d e f g h i j k l m n o p q r s t u v w x y z 0-9

Inconciente Colectivo

Charly Garcia

			
A)
Nace una flor...
e |------5---------------------------------------------8-7-5--------
B |-5-8-5-5---5-5-5------5-5-5-5-5-6-5-5------------------------5-5-
G |--------7-5--------5-7---------------7-7-7-5-7-5-7-5------5-7----
D |----------------7-7--------------------------------------7-------

----------------|
-5-5-5---8-5----|
------7-5---7-5-|
----------------|

A)
Pero a la vez...
e |------5---------------------------------------------8-7-5--------
B |-5-8-5-5---5-5-5------5-5-5-5-5-6-5-5------------------------5-6-
G |--------7-5--------5-7---------------7-7-7-5-7-5-7-5------5-7----
D |----------------7-7--------------------------------------7-------

---------|
-5-------|
--7-5-7--|
-------7-|

B)
Mamá la libertad...	
e |-----------------------------------|
B |-8-8-8-8?6-6-5-5-5-5--------5------|
G |--------------------7-7-5?5?-7-5-7-|
D |---------------------------7-------|

B)
Te pueden corromper...
|-----------------------------------|
|-8-8-8-8?6-6-5-5-5-5--------5------|
|--------------------7-7-5?5?-7-5-7-|
|---------------------------7-------|

A)
Ayer soñé...
e |------5-----------------------------------------------8-7-5--------
B |-5-8-5-5---5-5-5--------5-5-5-5-5-6-5-5------------------------5-6-
G |--------7-5----------5-7---------------7-7-7-5-7-5-7-5------5-7----
D |----------------7-7-7--------------------------------------7-------

---------|
-5-------|
--7-5-7--|
-------7-|

C)
Es necesario cantar...
e |----------------8-6-5-|
B |-----5-6-5---8-6------| 
G |--5-7-----7-5---------|  
D |-7--------------------| 
esta ultima parte suena asi en el disco pero
se puede cambiar por:

e |----------------------|
B |-----5-6-5---8-5-5----|
G |--5-7-----7-5---7-7-5-|
D |-7--------------------|

Hola mi nombre es Pablo Cinquini; espero que lo entiendan 
y sepan disculpar los errores es la primera vez que hago esto.
Cualquier duda, crítica o solicitud a: pablo_77cinq@hotmail.com

Fuente original ATAME [www.atame.org]
Colaborador original: pablo cinquini [pablo_77cinq@hotmail.com]

Fuente: tusacordes.com