a b c d e f g h i j k l m n o p q r s t u v w x y z 0-9

Himno Nacional Argentino

Charly Garcia

			
HIMNO NACIONAL ARGENTINO.
 LETRA ORIGINAL: LOPEZ - PLANES
 MÚSICA ORIGINAL: BLAS PARERA
 
 ANOTACIONES:
 ESTA VERSIÓN ESTA CAMBIADA, LA SAQUE DE OIDO DE
 EL DISCO "FILOSOFIA BARATA Y ZAPATOS DE GOMA" DE CHARLY GARCIA,
 QUIEN LE HIZO TODOS LOS ARREGLOS Y CAMBIOS QUE TIENE.
 LA VERSION ORIGINAL ESTÁ TOCADA EN SI BEMOL Y ESTA, ESTÁ EN DO Y SE
 LE QUITARON ALGUNAS PARTES.
 EL TEMA ESTA TOCADO CON TECLADOS PERO YO LE HICE LA ADAPTACION A GUITARRA.
 EL TEMA ES SIN DISTORSION, SALVO EN LOS ACORDES MARCADOS Y EN EL SOLO DEL FINAL,
 EL CUAL ES IMPROVISADO Y NO SE PUEDE TRANSCRIBIR.
 SEPAN DISCULPAR QUE NO LE PUSE TIEMPO, YA QUE NO SE COMO SE ESCRIBE, PERO EL TIEMPO
 SALE SOLO.
 BUENO, A TOCARLO QUE NO ES DIFICIL.
 ********** = ESTAS PARTES CHARLY GACIA NO LAS TOCA. 

 e-------------3--]------------------]----------------]---5-3-2-----3-]----------------]
 B------5---------]-6---3------------]---------3------]--5------6-3---]-5--6-5-3-6-5-3-]
 G---5-----5------]---------4--------]-4-4-4-5---5----]---------------]---5------------]
 D----------------]------------------]----------------]---------------]----------------]
 A----------------]------------------]----------------]---------------]----------------]
 E----------------]------------------]----------------]---------------]----------------]
   _____________
  /************* 
 e----------------]-----------3------]-----3----------]-----3-2-1-----]
 B-----------5-6-8]-8-6-3-3-5---6-3--]-3-5---6-3-- ---]-3-5-----------]
 G---2-4-5-7------]------------------]----------------]---------------]
 D-5--------------]------------------]----------------]---------------]
 A----------------]------------------]----------------]---------------]
 E----------------]------------------]----------------]---------------]

 e----------------]------------------]----------------]---------------]
 B-5-3------------]-5-3--------------]-6-5-3-3-3-3----]-6-5-3-3-3-3---]
 G-----4-4-4-4----]-----4-4-4-4------]----------------]---------------]
 D----------------]------------------]----------------]---------------]
 A----------------]------------------]----------------]---------------]
 E----------------]------------------]----------------]---------------]

 e----------------]------------------]----------------]---------------]----------------]
 B-8-6-5-5-5-5----]-8-6-5-5-5-5------]-10-8-6-6-6-6---]-12-10-8-8-8-8-]-13-------------]
 G----------------]------------------]----------------]---------------]----------------]
 D----------------]------------------]----------------]---------------]----------------]
 A----------------]------------------]----------------]---------------]----------------]
 E----------------]------------------]----------------]---------------]----------------]
   ______________		       ______________
  /**************		      /**************
 e----------------]------------------]----------------]---------------]----------------]
 B-------5-8-8----]-8-6--------------]------5-8-8-----]-8-6-----------]-5---5---5------]
 G-----5----------]-----7------------]----5-----------]-----7---------]---5---5---5-5--]  
 D---5------------]-------9-10-------]---5------------]-------9-------]----------------]
 A-7--------------]------------------]-7--------------]---------10----]----------------]
 E----------------]------------------]----------------]---------------]----------------]
  ___________________________________
 / CON DISTORCION  C-Csus4-C	     
 e----0-----------]--------------0---]
 B----1-----------]--------------1---]
 G----0-----------]--------------0---]
 D----2-----------]----3---------2---]
 A----3-----------]----3---------3---]
 E----0-----------]----0---------0---]


 OID MORTALES EL GITO SAGRADO: LIBERTAD, LIBERTAD ¡LIBERTAD!
 OID EL RUIDO DE ROTAS CADENAS, VED EN TRONO A LA NOBLE IGUALDAD.
 YA A SU TRONO DIGNISIMO ABRIERON; LAS PROVINCIAS UNIDAS DEL SUD,
 Y LOS LIBRES DEL MUNDO RESPONDEN, AL GRAN PUEBLO ARGENTINO SALUD
 Y LOS LIBRES DEL MUNDO RESPONDEN, AL GRAN PUEBLO ARGENTINO SALUD
  

 e----------------]------------------]----------------]---------------]
 B-5-3------------]-5-3--------------]-6-5-3-3-3-3----]-6-5-3-3-3-3---]
 G-----4-4-4-4----]-----4-4-4-4------]----------------]---------------]
 D----------------]------------------]----------------]---------------]
 A----------------]------------------]----------------]---------------]
 E----------------]------------------]----------------]---------------]

 e----------------]------------------]----------------]---------------]----------------]
 B-8-6-5-5-5-5----]-8-6-5-5-5-5------]-10-8-6-6-6-6---]-12-10-8-8-8-8-]-13-------------]
 G----------------]------------------]----------------]---------------]----------------]
 D----------------]------------------]----------------]---------------]----------------]
 A----------------]------------------]----------------]---------------]----------------]
 E----------------]------------------]----------------]---------------]----------------]
 
 e----------------]------------------]----------------]---------------]----------------]
 B-------/13-----]-8-6--------------]-----/13-------]-8-6-----------]-5---5---5------]
 G----------------]-----7------------]----------------]-----7---------]---5---5---5-5--]  
 D----------------]-------9-10-------]----------------]-------9-------]----------------]
 A----------------]------------------]----------------]---------10----]----------------]
 E----------------]------------------]----------------]---------------]----------------]
  ________________
 /CON DISTORCION C
 e----0-----------] 
 B----1-----------] 
 G----0-----------] 
 D----2-----------] 
 A----3-----------] 
 E----0-----------] 

 SEAN ETERNOS, LOS LAURELES 
 QUE SUPIMOS CONSEGUIR

 SEAN ETERNOS, LOS LAURELES 
 QUE SUPIMOS CONSEGUIR
 
 CORONADOS DE GLORIAS VIVAMOS

 OHH JUREMOS CON GLORIA MORIR

 OHH JUREMOS CON GLORIA MORIR

 OHH JUREMOS CON GLORIA MORIR.


 e ----------------]
 B -5---5---5------]
 G ---5---5---5-5--]  
 D ----------------]
 A ----------------]
 E ----------------]
  ________________
 /CON DISTORCION C
 e----0-----------] 
 B----1-----------] 
 G----0-----------] 
 D----2-----------] 
 A----3-----------] 
 E----0-----------]   SOLO. 

 TRANSCRIPCION HECHA POR EZEQUIEL.
 AGRDECIMIENTOS A FACUNDO, QUIEN ME AYUDO A SACAR ALGUNAS PARTES.
 DICIEMBRE DE 1999
 SI TENES ALGUNA DUDA O COMENTARIO ME LLAMO EZEQUIEL Y MI E-MAIL ES maggia@sinectis.com.ar
 SI ALGUIEN SABE LAS CANCIONES "POR" O "CANTATA DE PUENTES AMARILLOS" DE SPINETTA 
 POR FAVOR ENVIENMELAS.
 POR FAVOR PARA PUBLICARLA EN OTRAS PAGINAS NO ALTERARLA Y MANTENER 
 EL NOMBRE Y EL E-MAIL.
 DISCULPEN SI HAY ALGUNA FALTA DE ORTOGRAFIA NO ME ANDA EL CORRECTOR
 ¡¡¡AGUANTE CHARLY!!!

Fuente original ATAME [www.atame.org]
Colaborador original: Ezequiel [maggia@sinectis.com.ar]

Fuente: tusacordes.com