a b c d e f g h i j k l m n o p q r s t u v w x y z 0-9

Fanky

Charly Garcia

			
Intro/Verso/Final
|----------------|----------------|
|----------------|----------------|
|5------5-0-3-03-|5------5-0-3-03-|
|--------1-------|--------1-------|

Estribillo
|----------------|----------------|
|----------------|----------------|
|1-------11-0----|3-------33-1-0--|
|-------1-----31-|-------3------3-|

|----------------|----------------|
|----------------|----------------|
|5------5-0-3-03-|5------5-0-3-03-|
|--------1-------|--------1-------|

Fuente original ATAME [www.atame.org]
Colaborador original: mariano alvarez [marnibal@hotmail.com]

Fuente: tusacordes.com