a b c d e f g h i j k l m n o p q r s t u v w x y z 0-9

Fanky

Charly Garcia

			
Esto se hace durante casi todo el tema:

 E ----5--3--5-----5--------5--3--5-----5--------
 A --5----------3-----3--5-----------3-----3--5--
 D ----------------------------------------------
 G ----------------------------------------------

  En el estribillo hace esto:

 E -----3--1--3-----3--------3--1--3-----3--------
 A --1-----------1-----1--3-----------1-----1--3--
 D -----------------------------------------------
 G -----------------------------------------------

   Y luego vuelve a hacer lo primero...
  
  SAY NO MORE!!!!!!!!!!!!!!!

Fuente original ATAME [www.atame.org]
Colaborador original: Juan Manuel Castro [contrabbasso@latinmail.com]

Fuente: tusacordes.com