a b c d e f g h i j k l m n o p q r s t u v w x y z 0-9

Demoliendo Hoteles

Charly Garcia

			
Intro
|----------------|----------------|----------------|----------------|
|----------------|----------------|----------------|----------------|
|----0-0-1---2---|3-3-3-3-3-3-3-3-|3-3-3-3-3-3-3-3-|3-3-3-3-3-3-3-3-|
|----------------|----------------|----------------|----------------|

Verso repetir las veces necesarias
|----------------|----------------|----------------|----------------|
|----------------|----------------|----------------|----------------|
|3-3-3-3-3-3-3-3-|3-3-3-3-3-3-3-3-|3-3-3-3-3-3-3-3-|3-3-3-3-3-3-3-3-|
|----------------|----------------|----------------|----------------|

Estribillo
|----------------|----------------|----------------|----------------|
|----------------|----------------|----------------|----------------|
|----------------|3-----3-3-------|5-----5-5-----5-|5-----5-3-------|x3
|1-----1-1-------|----------------|----------------|----------------|

|----------------|----------------|----------------|----------------|
|----------------|----------------|----------------|----------------|
|----------------|3-----3-3-------|----------------|----------------|x1
|1-----1-1-------|----------------|1---------------|----------------|

Intro
Verso
Estribillo

Fuente original ATAME [www.atame.org]
Colaborador original: mariano alvarez [alv_jor@yahoo.com.ar]

Fuente: tusacordes.com