a b c d e f g h i j k l m n o p q r s t u v w x y z 0-9

De Mi

Charly Garcia

			
los arreglos y punteos de este tema los saque de la
 transcripcion de piano q hay, lo unico q hago es
pasarlo a guitarra

Intro:

e---------7-7-------------3-3-
b-3h5p3-3--------1h3p1-1------
G-----------------------------
D-----------------------------
A-----------------------------
E-----------------------------

e---------7-7-------------3-3-------3-
b-3h5p3-3--------1h3p1-1--------3-1-0-
G-----------------------------------0-
D-----------------------------------0-
A-----------------------------------2-
E-----------------------------------3-



G                                C   G   Riff
  Cuando estes mal cuando estes sola

G                                C   Bb
  cuando ya estes cansada de llorar
Em                 D        F           C          G       D C G
 no te olvides de mi porque se que te puedo estimular

cuando me mires a los ojos
y mi mirada este en otro lugar
no te acerques a mi porque se que te puedo lastimar

C                      Bb
no pienses que estoy loco
    G
es solo una manera de actuar
C                      Bb
no pienses que estoy solo
A7                   D7
estoy comunicado con todo lo demas

por eso!

cuando estes mal cuando estes sola
cuando ya estes cansada de llorar
no te olvides de mi porque se que te puedo estimular

C    Bb    G

C   Bb     A7     D7

e--------------------------------------------------12-10-----
b--10-12-10-12-10-12-10-13-10--10-12-10-12-10-12-10-------11-
G------------------------------------------------------------
D------------------------------------------------------------
A------------------------------------------------------------
E------------------------------------------------------------

no te olvides de mi porque se que te puedo estimular

e---5-7-5---5-0---5------5------------
b-8-------8-----8---5-8---8--8--5-8---
G-------------------------------------
D-------------------------------------
A-------------------------------------
E-------------------------------------


Intro


riff:


e-------
b-------
G-------
D--0-3-5
A-------
E-------

bueno, esto es todo, espero q sirva..


chaussssssss

Fuente original ATAME [www.atame.org]
Colaborador original: viru [el_codigo_tanga@hotmail.com]

Fuente: tusacordes.com