a b c d e f g h i j k l m n o p q r s t u v w x y z 0-9

Chipi Chipi

Charly Garcia

			
Intro:
E||--------------------------------------------|
B||--------------13-13-13-12-------------------|
G||---------12--------------14-14-12-11-11h12--|
D||-12-12h14-----------------------------------|
A||--------------------------------------------|
E||--------------------------------------------|


Arreglo sobre G (Despues de “y este soubenir” -0:45min.-)
E||---------------------------|
B||---------------------------|
G||-------12------------------|
D||-12H14----14-12------------|
A||---------------14-12-------|
E||--------------------15/----|


Arreglo sobre G (Después de “donde nunca fuí” -1:19min.-)
E||-------------------12-15--
B||-------------13-15--------
G||-------12-14--------------
D||-12H14--------------------
A||--------------------------
E||--------------------------


Punteo 1:38min.:
E||-------------------------------------------
B||-------------------------------------------
G||------12----12----12-12-12---12-14^-12-12--
D||--/14----14----14---------14---------------
A||-------------------------------------------
E||-------------------------------------------

E||--------15----------------------
B||-----15-----12-15/17/15--12-----
G||--12------------------------12--
D||--------------------------------
A||--------------------------------
E||--------------------------------

E||-------------------------------15-14-12-----------------------------------
B||--------------------------12-16--------15/17/15----12-15------------------
G||---------------12------14------------------------14-----14-12-------------
D||-9--------12--9-----/12--------------------------------------14-12/9-8-7/-
A||--12-10-------------------------------------------------------------------
E||--------12----------------------------------------------------------------


Puente2:33
E||--------------------------------------------------
E||--------------------------------------------------
E||--------------------------------------------------
E||---5-4-------7---5-5-4--5-5---5-4-4--5-4----------
E||-5-----5/7------------------5------------5-5/7----
E||--------------------------------------------------

Fuente original ATAME [www.atame.org]
Colaborador original: pablo rodriguez [ahmarinos @hotmail.com]

Fuente: tusacordes.com