a b c d e f g h i j k l m n o p q r s t u v w x y z 0-9

Cerca De La Revolucion

Charly Garcia

			
El tab de Santiago Alujas esta bien, pero le falto una parte. 
Fijense en la cancion antes del estribillo

Intro

G-----------------------------------------------------
D-----------------------------------------------------
A-----------------------------------------------------
E-0-0--3---5-5-3-0-0--3-5-5-5---3--0-0--3--5-5--3-0---

Puente antes de estribillo parte que falta en el tab de Santiago Alujas

G-----------------------------------------------
D-----------------------------------------------
A----------------------------------------5-5-5--
E-0---3---5--5-5-5-5---5--5-5-5-6-7--7-7--------

En el estribillo:


G-----------------------------------
D-----------------------------------
A-------------3-3-5-5---------------
E-3-3--1-1------------6-5-3---------


  
Pero si insisto...

G------------------------------
D------------------------------
A------------------------------
E---5--5-5-5-5--6--6-6-6-6-----

...conseguiré

G----------------------------------
D----------------------------------
A-----1--3-3--1-------1-3-3-3-1----
E-3-3------------3-3---------------

Fuente original ATAME [www.atame.org]
Colaborador original: Alejandro Wasil [alewasil@hotmail.com]

Fuente: tusacordes.com