a b c d e f g h i j k l m n o p q r s t u v w x y z 0-9

Cerca De La Revolucion

Charly Garcia

			
1/-------------------------------------------------------------------
2/-------------------------------------------------------------------
3/-------------------------------------------------------------------
4/-0-0--3---5-5-3-0-0--3-5-5-5---3--0-0--3--5-5--3-0-----------------


En otra parte de la canción, no sé si es el estribillo, hace así:


1/--------------------------------------------------------------------
2/--------------------------------------------------------------------
3/-------------3-3-5-5------------------------------------------------
4/-3-3--1-1------------6-5-3------------------------------------------


  creo que a lo de arriba lo repite 2 o 3 veces, y después hace así:


1/--------------------------------------------------------------------
2/--------------------------------------------------------------------
3/-------------3-3-5-5------------------------------------------------
4/-3-3--1-1------------6-5---5-(x-10)--6-x5-------------------------
Luego comienza la intro nuevamente.

Fuente original ATAME [www.atame.org]
Colaborador original: Mauro Hernandez [mauroeh@starmedia.com]

Fuente: tusacordes.com