a b c d e f g h i j k l m n o p q r s t u v w x y z 0-9

Asesiname

Charly Garcia

			
hola
espero que atame acepte esto que esta bien

ESTE PUNTEO LO HACE CUANDO DICE
 ?DEJE TU IMAGEN EN EL CAJON?

  F   X2     C X2      G X2
E-1-------I-3-------I-3--------I
B---1-----I---5-3---I---3------I
G-----3-2-I-------5-I-----5-4--I
D---------I---------I----------I
A---------I---------I----------I
E---------I---------I----------I


   F#m X2     C#m X3             Em  A
E-2--------I-4--------I-4------
B---2------I---5-4----I---5^--
G-----4-2--I-------6--I--------
D----------I----------I--------
A----------I----------I--------
E----------I----------I--------


  ESTO LO HACE CUANDO DICE
?ASESINAME, ASESINAME?

   D      A/C#   Bm7         G
E-2-------------2-------3--
B-3-----2-----3-------0--
G-2-----2-----2-------0--
D-0-----2-----4-------0--
A-----0-5-4-0-4-2-0-2-0-2--
E---------------------------3--

LAS NOTAS QUE ESTAN ENTRE PARENTESIS
EN ESTE CASO ACORDES ES PORQUE
SUENAN MAS DE UNA VEZ
ESCUCHEN LA CANCION PARA ENTENDERLO
oso puto oso_scouts hotamial
PUBLICO LOS PUNTEOS Y LOS
ACORDES TAMBIEN A PESAR DE
YA ESTEN EN OTRAS COLABORACINES
 PARA QUE PUDAN ENTENDERLOS.
EN EL SEGUNDO ESTRIBILLO LA
 GUTARRA TOCA LOS ACORDES HASTA QUE
 EMPIEZA A CANTAR Y AHÍ HACE LA
CUARTA PARTE DEL RIFFSOBRE C#m
 DE ARRIBA DE TODO. IGUAL LES
VA A SALIR ES FACIL
DUDO DEL RIFF SOBRE F#m
AVISENME SI ESTA MAL.

Fuente original ATAME [www.atame.org]
Colaborador original: jose casanova [corol_mata_88@hotmail.com]

Fuente: tusacordes.com