a b c d e f g h i j k l m n o p q r s t u v w x y z 0-9

Discojapy

Chancho En Piedra

			
CUANDO CRECI!!

|-----------------------------------------------------------------------------------------------|
|-----------------5---------------5-7*5-----------------5-------------5-----5h7---7-5-----------|
|--------5h7-5h7---7---------5h7-5--------------5h7-5h7---7--------5h7---7h5-----5------7-5-----|
|--5-3-0---------------5-3-0-------------5-3-0---------------5-3-0-------------------------7-5-0|

No hay que juzgar...

|----------------------------------------------|
|------5h7------------------------5h7-5--------|
|--5h7------------------------5h7-------7------|
|-5---------5-5-5-5-6-6-7------------------0/7-|

Quisiera alejar...

|--------------------------------------------------------------------------------------|
|--------------------------------------------------------------------------------------|
|---5-7-5---------------------------------------------5-7-5--------------------7-5-----|
|-0------7-5---0-3-5-0-3---0-3-5-0-5---0-3-5-3-0--3h5------7-5-0-3-5-7-3-5-0-3-----7-5-|

Mi Creacion es un mundo...

|----------------------------|
|-----------------5----------|
|--------5h7-5h7---7---------|
|--5-3-0-----------------5-3-| Esto se repite varias veces 

Y la variacion al final es

|---------------------------------|
|-------5-----5h7---7-5-----------|
|-7-5h7---7h5-----5-----7-5-------|
|---------------------------7-5-0-|

No hay que juzgar...

|----------------------------------------------|
|------5h7------------------------5h7-5--------|
|--5h7------------------------5h7-------7------|
|-5---------5-5-5-5-6-6-7------------------0/7-|

Quisiera alejar...

|--------------------------------------------------------------------------------------|
|--------------------------------------------------------------------------------------|
|---5-7-5---------------------------------------------5-7-5--------------------7-5-----|
|-0------7-5---0-3-5-0-3---0-3-5-0-5---0-3-5-3-0--3h5------7-5-0-3-5-7-3-5-0-3-----7-5-|

Si dices q lo ke hago es un error...

|---------------------------| |--------|
|-9-7-----------------------| |--9-7-5-|
|-----10-7----7-10-7--------| |--------|
|----------10-------0-0-0-0-| |--------|Variacion

|------------------------------------|
|-9-7--------------------------------|
|-----10-7----7-10-7-----------------|
|----------10--------10-7-10-7-5-3-0-|

Solo

|--------------------------------------------------------------------|
|--------------------------------------------------------------------|
|--------------------------------------------------------------------|
|-0-0-0-0-0-5-3-3-5-5-5-5-5-5-5-3-0-8-8-8-8-8-7-7-3-3----------------|

|---------------------------------------|
|-----------------------------5---5-7-5-|
|-----------------7-7-7-7-5-7---7-------|
|8-8-8-8-8-7-7-10-----------------------|

Cuando se mete la guitarra hay una variacion pero 
sacala tu que me da lata seguir haciendo rayas.


Aqui va otra wea que es como solo 

|--------------------------------------------------------------------------------------|
|--------------------------------------------------------------------------------------|
|-----------------7-5-----------------7-5-----------------------7-5-------------5--7-7-|
|-5-0-3-5-0-5-0-3-----7-5-0-3-5-3-0-0-----7-5-5-0-3-5-0-3-5-0-3-----7-5-0-3-5-7--------|

Quisiera alejar...

|--------------------------------------------------------------------------------------|
|--------------------------------------------------------------------------------------|
|---5-7-5---------------------------------------------5-7-5--------------------7-5-----|
|-0------7-5---0-3-5-0-3---0-3-5-0-5---0-3-5-3-0--3h5------7-5-0-3-5-7-3-5-0-3-----7-5-|

FINAL  al fin

|---------------------------| 
|-9-7-----------------------| 
|-----10-7----7-10-7--------| 
|----------10-------0-0-0-0-| 

|--------------------------|
|-9-7----------------------|
|--------7-10-7------------|
|-----10--------10-7-5-3-0-|

YA LOCO CUALQUIER QUEJA A MI E MAI PO VIVA CHILE MIERDA Y YO

Fuente original ATAME [www.atame.org]
Colaborador original: maximiliano silva [maximilichancho@hotmail.com]

Fuente: tusacordes.com