a b c d e f g h i j k l m n o p q r s t u v w x y z 0-9

My Heart Will Go On

Celine Dion

E
G#m
A
B
C#m
G
D
Fm
			
Canción: My heart will go on 
 Autor: W. Jennings/J. Horner
 Intérprete: Celine Dion
 Película: Titanic 
 Acordes: Jesús Rodríguez/jrv@ritaclara.com
 Compás: 4/4  
Observaciones: Puedes hacer la canción con 
  rasgueos, aunque para mí es más completo
  utilizar arpegios y combinarlo con rasqueos.
  Si tienes alguna duda, envíame un correo
  o visita la  Web.www.ritaclara.com
  

                   ACORDES
     E G#m G#7        A A2  B         B2 B4 C#m 
E |--0--4--4-------|--0--0--2-------|--2--0--4----
B |--0--4--4-------|--2--0--4-------|--2--0--5----
G |--1--4--5-------|--2--2--4-------|--4--4--4----
D |--2--6--4-------|--2--2--4-------|--4--4--6----
A |--2--6--6-------|--0--0--2-------|--2--2--4----
E |--0--4--4-------|----------------|-------------

  C#m7 Ab Cm7       Db2 Eb Eb2        Eb4 Fm       
E |--4--4--3-------|--4--3--6-------|--6--1------
B |--5--4--4-------|--4--4--6-------|--9--1------
G |--4--5--3-------|--6--3--8-------|--8--1------
D |--6--6--5-------|--6--5--8-------|--8--3------
A |--4--6--3-------|--4--6--6-------|--6--3------
E |-----4----------|----------------|-----1------

Do#m7 Si4 A Si4 B 
 
Do#m7 Si4 A Si4 B 


Mi             Si4         
Every night in my dreams
  La2         Mi  Si4
I see you, I feel you
 Mi            Si4        La2
That is how I know you go on
 Mi              Si4
Far across the distance
     La2      Mi   Si4
and spaces between us
 Mi               Si4        La2
you have come to show you go on


C#m  Si4     La2       Si4
Near, far, wherever you are
    C#m           Si2        A  Si4
I believe that the heart does go on

C#m Si4      La2         Si4
Once more you opened the door
           C#m       G#m
and you're here in my heart and
   La2           Si4    C#m
my heart will go on and on


Si4 La Si4 Si 

Mi                Si4
Love can touch us one time
    La2        Mi  Si4
and last for a lifetime
Mi            Si4            La2
and never let go till we?re gone
Mi             Si4
Love was when I loved you
    La2         E   Sol#7
One true time I hold to
C#m             G#m     La2
In my life we?ll always go on

C#m  Si4     La2       Si4
Near, far, wherever you are
    C#m           Si2        A  Si4
I believe that the heart does go on
C#m Si4       La2        Si4
Once more you opened the door
           C#m       G#m
and you're here in my heart and
   La2              Si4   C#m 
my heart will go on and on

 Si4 La2 Si4

 Do#m7 Si4 A C#m Sol#7

Fm    Mib           Reb2       Mib
You're here, there's nothing I fear
      Fm          Mib           Reb Mib2
and I know that my heart will go on
Fm   Mib    Reb2        Mib
We'll stay forever this way
        Fm        Dom7       
you are safe in my heart and
           Reb2          Lab Mib4 Lab
my heart will go on  and  on

Fuente: Tusacordes