a b c d e f g h i j k l m n o p q r s t u v w x y z 0-9

Medley Pantera

Carajo

			
e ----------------------|----------------------|-------------------------
b ----------------------|----------------------|-------------------------
g ----------------------|----------------------|-------------------------
d ----------------------|----------------------|-------------------------
a 5/7-2-x-5/7-2---x-x-2-|-5/7-2-x-85-2-x-x-x-2-|-5/7-2-x-5/7-2---x-x-x-2-
e 3/5-0-x-3/5-0---x-x-0-|-3/5-0-x-63-0-x-x-x-0-|-3/5-0-x-3/5-0---x-x-x-0-


e ------------------------------------------------------------------------
b ------------------------------------------------------------------------
g ------------------------------------------------------------------------
d ------------------------------------------------------------------------
a -------2-2-2---2-2-2---2-2-2---2-2-2-------2-2-2--2-2-2--2-2-2----------
E -------0-0-0---0-0-0---0-0-0---0-0-0-------0-0-0--0-0-0--0-0-0----------


e ----------------------|--------------------------------------|----------
b ----------------------|--------------------------------------|----------
g ----------------------|--------------------------------------|----------
d ----------------------|-------------------------------3h5p3--|----------
a 3h5--3h5--3p0---------|--3h5--3h5--3p0---------3h5p3---------|----------
e ---------------5p3p0--|-----------------5p3p0----------------|----------


e ----------------------|--------------------------------------|----------
b ----------------------|--------------------------------------|----------
g ----------------------|--------------------------------------|----------
d ----------------------|--------------------------------------|----------
a ---------------------5|6---6-5---------------------------5-6-|--6-5-----
e 0-0---0-0--0-0---5-7--|--7---------0-0---0-0---0-0---5-7-----|7---------


e ------------------------------------------------------------------------
b ------------------------------------------------------------------------
g ------------------------------------------------------------------------
d ------------------------------------------------------------------------
a -------2-2-2---2-2-2---2-2-2---2-2-2-------2-2-2--2-2-2--2-2-2----------
E -------0-0-0---0-0-0---0-0-0---0-0-0-------0-0-0--0-0-0--0-0-0----------


e ------------------------------------------------------------------------
b ------------------------------------------------------------------------
g ------------------------------------------------------------------------
d 0-0-0-0-0-0-0-0-1-1-0-0-0-0-0-0-0-0-1-1-0-0-0-0-0-0-0-0-1-1-0-0-0-0-0-0-
a 0-0-0-0-0-0-0-0-1-1-0-0-0-0-0-0-0-0-1-1-0-0-0-0-0-0-0-0-1-1-0-0-0-0-0-0-
e 0-0-0-0-0-0-0-0-1-1-0-0-0-0-0-0-0-0-1-1-0-0-0-0-0-0-0-0-1-1-0-0-0-0-0-0-



e ------------------------------------------------------------------------
b ------------------------------------------------------------------------
g ------------------------------------------------------------------------
d ----------------9-7-9-----------9-7-9-----------9-7-9-------------------
a ----------------7-5-7-----------7-5-7-----------7-5-7-----------5-7-5---
E --------0---0-----------0---0-----------0---0-----------0---0---3-5-3---


e --------------------------------------------------|----------------------
b --------------------------------------------------|----------------------
g --------------------------------------------------|----------------------
d --------------------------------------------------|----------------------
a --------------2---------------2-------------------|-----------2-----2---2
E ----------00000-----------00000-------------------|-------00000-00000-000


e -------------------------------------------------------------------------
b -------------------------------------------------------------------------
g -------------------------------------------------------------------------
d -------------------------------------------------------------------------
a --------9---8---7-6-5-4--------------------------------------------------
E --------7---6---5-4-3-2--------------------------------------------------


e -------------------------------------------------------------------------
b -------------------------------------------------------------------------
g -------------------------------------------------------------------------
d --5--5--7-5-7-5-8-5-7-5--8h9----------5--5--7-5-7-5-8-5-7-5--------------
a 7--7--------------------------------7--7-------------------------6-5-3-0-
e -------------------------------------------------------------------------



e -------------------------------------------------------------------------
b -------------------------------------------------------------------------
g -------------------------7-----------------------------------------------
d -----------5---5-7-5-7-8--------5---5-7-5-7-8-7-5------------------------
a ---------7---7----------------7---7-----------------7--------------------
e -------------------------------------------------------------------------



e -------------------------------------------------------------------------
b -------------------------------------------------------------------------
g -------------------------------------------------------------------------
d -------------------------------------------------------------------------
a --------------------5----------------------------------------------------
e 0-3-0-3-0-3-5-3-5-6-------0-3-0-3-0-3-5-3-5-6-5-3-0----------------------


e -------------------------------------------------------------------------
b -------------------------------------------------------------------------
g -------------------------------------------------------------------------
d -------------------------------------------------------------------------
a -----------------5------------------1-0----------------------------------
e 0-0-0-0-0-0-5-6-7--------0-0-0-0-0-------3-0-----------------------------

e -------------------------|---------------------|-----|--------------------
b -------------------------|---------------------|-----|--------------------
g -------------------------|---------------------|-----|--------------------
d -------------------------|---------------------|----|----------------x-12
a -------------------------|---------------------|-----|-------------x----12
e 0--0---0-2-1-0---0-2-1-0-|---0-2-1-0---0-2-1-0-|-----|---0-2-1-0--------12


e --------------------|-------------------|-------------------|
b --------------------|-------------------|-------------------|
g o-------------------|-------------------|-------------------|
d o-------------------|-------------------|-------------------|
a ------------------8-|-----------------6-|-----------------8-|
e --0---0-2-1-0---0-8-|-0---0-2-1-0---0-6-|-0---0-2-1-0---0-8-|



e --------------------------||-------------------------||
b --------------------------||-------------------------||
g -------------------------o||-------------------------||
d -------------------------o||-------------------------||
a --------------------------||-------------------------||
e -0-0-0-1-0-3-0-4-0-3-0-1--||-0-0-0-1-0-3-0-4-0-3-0-1-||


e -----------------------||
b -----------------------||
g o---------------------o||
d o---------------------o||
a --------1-0-------1-0--||
e --0-0-0-1-0-0-0-0-1-0--||Fuente: Tus acordes