a b c d e f g h i j k l m n o p q r s t u v w x y z 0-9

Si Vas Para Chile

Canciones Populares

			
Esto va para mi abuela Angela, que le gusta 
tanto y para el futuro 7 año C de la escuela
Guillermo Matta en el año 2003 vivo en Stgo.Chile. 

Si Vas para Chile 



1|--3-2-0-3-3-BIS-3-2-0-3-2-------2-0-2-2-BIS-|     
2|-3-------------------------3-5-1-3----3---------|  
3|------------------------------------------------|  
4|------------------------------------------------|    
5|------------------------------------------------|    
6|------------------------------------------------|

1|-2-2-2-3-5-3-2-3-2-0-3----3-2-0-3-3-BIS-3-3-3-|
2|-----------------------3-3----------------------|
3|------------------------------------------------|
4|------------------------------------------------|
5|------------------------------------------------|
6|------------------------------------------------|

1|-5-7-5-3-7-5-3-7-5-3-7-3-5-0-0-8-7-5-8-8-5-7-5-3-|
2|-------------------------------------------------|
3|-------------------------------------------------|
4|-------------------------------------------------|
5|-------------------------------------------------|
6|-------------------------------------------------|

1|-7-3---5-3-2-5-5-5-5-7-7-5-3-|5-7-8-7-5-8-7-5-7-3-|
2|-----3-----------------------|--------------------|
3|-----------------------------|--------------------|
4|-----------------------------|--------------------|
5|-----------------------------|--------------------|
6|-----------------------------|--------------------|

1|-2-3-5-3-2-5-3-2-5-3-4 veces-0-8-7-5-8-8-5-7-5-3-|
2|---------------------------------------------------|
3|---------------------------------------------------|
4|---------------------------------------------------|
5|---------------------------------------------------|
6|---------------------------------------------------|

1|-7-3---5-3-2-5-5-5-5-7-7-5-3----------------------|
2|-----3--------------------------------------------|
3|--------------------------------------------------|
4|--------------------------------------------------|
5|--------------------------------------------------|
6|--------------------------------------------------|

I eso fue algo simple ojala les sirva cualkier 
duda mandemela a mi mail.

 ***********  *      *  **********  *************
 *            *      *  *        *  *           *   
 *            *      *  *        *  *           *
 *            ********  **********  *           *
 *            *      *  *        *  *           *
 *            *      *  *        *  *           *
 ***********  *      *  *        *  *************

Fuente original ATAME [www.atame.org]
Colaborador original: Johan Barrera Aros [johan_barrera@msn.com]

Fuente: tusacordes.com