a b c d e f g h i j k l m n o p q r s t u v w x y z 0-9

Rock´n Boogies

Canciones Populares

			
1- ---------------------------- 
2- ----------------------------
3- ----------------------------
4- ----------0-----------------
5- ------2-4---4-2-------------
6- --0-4-----------4-----------


1- ----------------------------
2- ----------------------------
3- --------0-------------------
4- ----2-4---4-2---------------
5- 0-4-----------4-------------
6- ----------------------------


1- ----------------------------
2- ----------------------------
3- ----2-4-5-4-2---------------
4- 0-4-----------4-------------
5- ----------------------------
6- ----------------------------


Y todo eso repitanlo varias veces, queda muy alegre, y mas si lo tocan con un tempo rapido. con una púa de 0,73mm o 0,88mm queda buenisimo !

Fuente: tusacordes.com