a b c d e f g h i j k l m n o p q r s t u v w x y z 0-9

Pin Pon

Canciones Populares

			
E|-----7----------------|----7------------|--------------------
B|---7---7----4-5-7-7---|--7---7----4-5-7-|--7-------4-5--7-7--
G|----------------------|-----------------|-----4-4------------
D|----------------------|-----------------|--------------------
A|----------------------|-----------------|--------------------
E|----------------------|-----------------|--------------------


E|--4-----------------------------------------------------|
B|-----7-5-4----------------------------------------------|
G|-------------6-4----------------------------------------|
D|--------------------------------------------------------|
A|--------------------------------------------------------|
E|--------------------------------------------------------|

FIN, SPERO Q LES GUSTE S MI PRIMERA COOLABORACION PZ HAY KEDA CHIDO DERRA. KAMARA

Fuente: tusacordes.com