a b c d e f g h i j k l m n o p q r s t u v w x y z 0-9

Pantera Rosa

Canciones Populares

			
------------------------------------------------------
------------------------------------------------------
---------------------5-4-----4-3----------------------
---------4-5-----4-5-----2-5------5s-7----------------
--6-7--------6-7-----------------------7-5-7----------
------------------------------------------------------


------------------------------------------------------
-----------------------------5-4----------------------
---------------------5-4----------7s-9-7--------------
---------4-5-----4-5-----2-5-------------9-7----7-9p-8
--6-7--------6-7-----------------------------10-------
------------------------------------------------------


------------------------------------------------------
------------------------------------------------------
------------------------------------------------------
--9p-8-9p-8-9p-8--------------------------------------
-----------------10-7-5-7-10-7-5-7--------------------
------------------------------------------------------

espero que les guste carnales

Fuente: tusacordes.com