a b c d e f g h i j k l m n o p q r s t u v w x y z 0-9

Pajaro Campana

Canciones Populares

A
B
			
ES UNA VERSION FACIL PARA GUITARRA, YA QUE LA VERSION
ORIGINAL ES DE ARPA

TIEMPO:6/8
   |
e||---3----3------3---|----3----3----3----3----3----3----3---3|
 ||-1----1------------|-1-----1----0----0----0----0----1---1--|
 ||-------------0-----|---------------------------------------|
 ||-------------------|---------------------------------------|
 ||-------------------|---------------------------------------|
E||-------------------|---------------------------------------|

e|---3----3----3----3----3----3----3----3----3----3-|---3---1--|
 |-1----1----0----0----0----0----1----1----1----1---|-0--------|
 |--------------------------------------------------|-----2----|
 |--------------------------------------------------|----------|
 |--------------------------------------------------|----------|
E|--------------------------------------------------|----------|

|---0-----|---|-0-|
|-------3-|-1-|---|
|-0-------|-0-|---|
|-----3---|-2-|---|
|---------|-3-|---|
|---------|---|---|

fill1
|-0-1-0-------------------------------0--0-1-0------------------|
|-------3-1-1*1--0-0-0-1-0---------------------3-1--0*0-0-1-0---|
|--------------------------2-0-----------------------------2-0*-|
|------------------------------3*3--2---------------------------|
|---------------------------------------------------------------|
|---------------------------------------------------------------|

e|-------------------0--0-1-0---------------------------------00-1-0-------|
 |----------------------------3-1-1*1--0-0*0--1-0-------------------3-1-0*-|
 |-0-0-2---0--------------------------------------2-0----------------------|
 |-------3---2*2--------------------------------------3*3-2----------------|
 |-------------------------------------------------------------------------|
E|-------------------------------------------------------------------------|

		   x 6 VECES
		   |		      fill2
e|----------0-1-1-3-------3-1-0---0-|---||
 |*0-0-1-3------------------------3---|-1-||
 |------------------------------------|-0-||
 |------------------------------------|-2-||
 |------------------------------------|-3-||
E|------------------------------------|---||

|------3----3-----3----3----3----3-|
|----0-----0----0-----0----0----0--|
|-*-----------0----------------0---|
|--------2---------------2---------|
|-*-3---------------3--------------|
|----------------------------------|

e|-----3-------3-----3-|-----3-----3-----3----3----3----3-|
 |---0-------0-----0---|---0-----------0-----0----0----0--|
 |---------------0-----|---------0---0----------------0---|
 |---------0-----------|-------0----------------2---------|
 |-2-------------------|-2-----------------3--------------|
E|---------------------|----------------------------------|

|----3--3---3--||----3-----3-----3-----3-----3--1-0----|---0/-----------|
|---0--0---0---||---0-----0-----0-----0-----0-------3--|-1--/repetidesde|
|---------0---*||--0-----0-----0-----0-----0-----------|-0--/-fill1-----|
|--------------||-0-----0-----0-----0-----0------------|-2--/& fill2----|
|-2-----------*||--------------------------------------|-3--/y sigue----|
|--------------||--------------------------------------|----/-A-------|

A
e|------------------------------|-------------------------|----3-------|
 |------------------------------|-------------------------|---0--------|
 |---0-----0----0---0----0----0-|---0---0---0---0---0---0-|--0-------0-|
 |--0-----0----0---0----0----0--|--2---2---2---2---2---2--|-0-------0--|
 |------------------------------|-3---3---3---3---3---3---|------------|
E|-3----3----3----3----3----3---|-------------------------|------3-----|

e|--------------3--------|
 |-------------0---------|
 |----0---0---0------0---|
 |---0---0---0------2----|
 |-----------------3-----|
E|-3---3-----------------|

e|----------|----3---------3-----------3--------3------|
 |----------|---0---------0-----------0--------0-------|
 |---0---0--|--0-----0---0------0----0-----0--0------0-|
 |--2---2---|-0-----0---0------0----0-----2--0------2--|
 |-3---3----|----------------------------3---------3---|
E|----------|------3----------3------------------------|

   x2	  x3	 x2	x2	x2    x2      x2    x2	   x2
|----3-|----3-|----3-|----3-|----3-|----3-|----3-|----3-|----3-|
|---0--|---0--|---0--|---0--|---0--|---0--|---0--|---0--|---0--|
|--0---|--0---|--0---|--0---|--0---|--0---|--0---|--0---|--0---|
|-0----|-0----|-0----|-0----|-0----|-0----|-0----|-0----|-0----|
|------|------|------|------|------|------|------|------|------|
|------|------|------|------|------|------|------|------|------|

    x2
|----3-|----3-1-0---|--------|
|---0--|---0------3-|-1------|
|--0---|--0---------|-0----0-|
|-0----|-0----------|-2------|
|------|------------|-3--2---|
|------|------------|---3----|

 B
e||-0--0--0--0--0--0---1-1-1---1--1--1---|
 ||-1--1--1--1--1--1---0-0-0---0--0--0---|
 ||--------------------------------------|
 ||----2--0----------------0---3--2--0---|
 ||-3--------3--2--0-----2---------------|
E||--------------------3-----------------|

e|-0--0--0---0--0--0--1--1--1---1--1--1--||---------|------------|
 |-1--1--1---1--1--1--0--0--0---0--0--0--||-1-------|------------|
 |---------------------------------------||-0-----0-|ir-a--fill1-|
 |-------0------------------0---3--2--0--||-2-------|---y-fill2--|
 |-3--2------3--2--0-----2---------------||-3---2---|y-sigue-B-|
E|--------------------3------------------||----3----|------------|
 P.........................................

e|--------------------------------3*3|
 |-------------------------------0---|
 |-0------0------0-----0000-----0----|
 |-----0------0------2---------0-----|
 |----2------2------2---------2------|
E|---3------3------3---------3-------|

|------3*3-------3*3-------3*3-------3----------3------------|
|-----0---------0---------0-------0------------0----------0--|
|----0---------0---------0-------0---------0--0-------0--0---|
|---0---------0---------0-------0---------0--0-------0--0----|
|--2---------2---------2-----------------2----------2--------|
|-3---------3---------3-----------------3----------3---------|

|-3-----------3-------|------------------------------------------|
|-----------0---------|------------------------------------------|
|------0---0--------0-|----0-----0-----0-----0-----0-----0-----0-|
|-----0---0--------0--|---0-----0-----0-----0-----0-----0-----0--|
|----2------------2---|--2-----2-----2-----2-----2-----2-----2---|
|---3------------3----|-3-----3-----3-----3-----3-----3-----3----|

|------|-----3------------------------3---------------------3--|
|------|----0------------------------0---------------------0---|
|----0-|---0-------0-----0-----0----0-----0-----0-----0---0----|
|---0--|--0-------0-----0-----0----0-----0-----0-----0---0-----|
|--2---|---------2-----2-----2----------2-----2-----2----------|
|-3----|--------3-----3-----3----------3-----3-----3-----------|

|----------3-----------3-----------3----3----3----3----3----3--|
|---------0-----------0-----------0----0----0----0----0----0---|
|----0---0-------0---0-------0---0----0----0----0----0----0----|
|---0---0-------0---0-------0---0----0----0----0----0----0-----|
|--2-----------2-----------2-----------------------------------|
|-3-----------3-----------3------------------------------------|

|----3----3--||-----15-----15------15-----15-----15-----15-----15-|
|---0----0---||*---0------0-------0------0------0------0------0---|
|--0----0----||---0------0-------0------0------0------0------0----|
|-0----0-----||--0------0-------0------0------0------0------0-----|
|------------||*--------------------------------------------------|
|------------||---------------------------------------------------|

|----15-----10-----10-----7-----7-----3-----3-----3-10-----|----|
|---0------0------0------0-----0-----0-----0-----0------3--|-1--|
|--0------0------0------0-----0-----0-----0-----0----------|-0--|
|-0------0------0------0-----0-----0-----0-----0-----------|-2--|
|----------------------------------------------------------|-3--|
|----------------------------------------------------------|----|
							     FIN
				FABRICIO MEJIAS
				EL NEGRO
¿QUEDO CLARO?

SALUDOS PARA EL PROMO 04 DEL 5° b DEL COLEGIO
NACIONAL 1 DE JUJUY!
AGUANTEN LOS TORDOS!

Fuente original ATAME [www.atame.org]
Colaborador original: FABRICIO MEJIAS [fabriciomejias@yahoo.com.ar]

Fuente: tusacordes.com