a b c d e f g h i j k l m n o p q r s t u v w x y z 0-9

Ojos Azules

Canciones Populares

			
bue este es el tema de ojos azules en punteo..   cualquier duda me avisa.......


1|--0-0-0-3-0---0-------0-0---------|
2|------------3---1-1-3-----3-0-1---|
3|--------------------------------2-|
4|----------------------------------|
5|----------------------------------|
6|----------------------------------|

x2

1|--------------0-------0-0---------|
2|--1-1-1-----3---1-1-3-----3-0-1---|
3|--------3-0---------------------2-|
4|----------------------------------|
5|----------------------------------|
6|----------------------------------|

x2



gracias...

Fuente: Tusacordes