a b c d e f g h i j k l m n o p q r s t u v w x y z 0-9

Ojos Azules

Canciones Populares

			
es una cancion bacana y un poco triste espero que les
         guste suerte

intro:


      1--------5-5-5-5-7-8-8-8-8-7-5-5-5-5-7-8-8-8-8-7-5-3-5-5-5
      2---------------------------------------------------------
      3---------------------------------------------------------
      4---------------------------------------------------------
      5---------------------------------------------------------
      6---------------------------------------------------------


verse:   


       1-----0-0-0-3-0---0-------0-0-----------
       2---------------3---1-1-3-----3-0-1-----
       3-----------------------------------2---
       4---------------------------------------
       5---------------------------------------
       6---------------------------------------
              se repite


chorus:



       1------------------0-----0-0-------------
       2-----1-0----1-1-3---1-3-----3-0-1-------
       3--------2-0-----------------------2-----
       4----------------------------------------
       5---------------------------------------5
       6--------------------------------------4-



end:se repite la INTRODUCCION

Fuente: tusacordes.com