a b c d e f g h i j k l m n o p q r s t u v w x y z 0-9

Oh! Susana

Canciones Populares

			
solo melodía

e|------0--3-3--5-3-0------0-0--------|------0--3-3--5-3-0------0-0--------|
B|--1-3----------------1-3-----3-1-3--|--1-3----------------1-3-----3-3-1--|
G|------------------------------------|------------------------------------|  x2
D|------------------------------------|------------------------------------|
A|------------------------------------|------------------------------------|
E|------------------------------------|------------------------------------|

e|----1---1---5--5----5-3-3-0---------|------0--3-3--5-3-0------0-0--------|
B|----------------------------1-3~----|--1-3----------------1-3-----3-3-1--|
G|------------------------------------|------------------------------------|
D|------------------------------------|------------------------------------|
A|------------------------------------|------------------------------------|
E|------------------------------------|------------------------------------|

Fuente original ATAME [www.atame.org]
Colaborador original: Marianito [maro_rnr@hotmail.com]

Fuente: tusacordes.com