a b c d e f g h i j k l m n o p q r s t u v w x y z 0-9

Noche De Paz

Canciones Populares

			
NOCHE DE PAZ

||--0---2--0----------0---2--0----------7----7---4----4---5----5----0-------|
||-------------2-----------------2------------------------------------------|
|o--------------------------------------------------------------------------|
|o--------------------------------------------------------------------------|
||--------------------------------------------------------------------------|
||--------------------------------------------------------------------------|                                            
      
|--2---2--2---5--4--2--0---2--0---------2---2--2---5--4--2--0---2--0--------|
|---------------------------------2------------------------------------2----|
|---------------------------------------------------------------------------|
|---------------------------------------------------------------------------|
|---------------------------------------------------------------------------|
|---------------------------------------------------------------------------|                                       

|--7---7--7---10---7---4---5---s---9------5----0-------0-------------------||
|--------------------------------------------------2--------3---0----------||
|--------------------------------------------------------------------2-----o|
|--------------------------------------------------------------------------o|
|--------------------------------------------------------------------------||
|--------------------------------------------------------------------------||                                              

|-------0----5--------||
|--2------------------||
|---------------------||
|---------------------||
|---------------------||
|---------------------||

Fuente: tusacordes.com