a b c d e f g h i j k l m n o p q r s t u v w x y z 0-9

Noche De Paz

Canciones Populares

			
E----------------3-3-3-0-0-0-1-1-1---------------------------------/
B1-3-1---1-3-1---------------------1--3-3-3-----6--5-3-1-3-1-------/
G------2-------2---------------------------------------------2-----/
D------------------------------------------------------------------/
A------------------------------------------------------------------/
E------------------------------------------------------------------/

E-------------------------3-3-3-6-3----------1---------------------/
B--3-3-3-----6--5-3-1-3-------------5-6--10-----3-0-1--------------/
G-----------------------2-----------------------------3-0----------/
D---------------------------------------------------------3--------/
A------------------------------------------------------------------/
E------------------------------------------------------------------/




Fuente: tusacordes.com