a b c d e f g h i j k l m n o p q r s t u v w x y z 0-9

Niña Camba

Canciones Populares

			
Esta cancion me gusto desde chico nunca supe quien la compuso



1/-0-0-2-0---3-2-0--------0---1-0---------------------/
2/------------------3-3-3---3---------3--1-1-1-3-1-4--/

1/--1--0-0-0--1-0-1-3--/
2/---------------------/

1/---------------------0----------0-0-3--0-0-0--2-2-2-/
2/---------------1-1-1----3-0-0-0---------------------/
3/--------2-2--2--------------------------------------/
4/------2---------------------------------------------/


1/-------0-2-0---0-------5--------0--5-3-2-3------0-2-3-2-5-3-2-/
2/---4-4-------4-----------1----1-------------0-0---------------/
3/----------------------------2---------------------------------/


1/-------0-2-0---5-4-----5--------0--5-3-2-3------0-2-3-2-5-3-2-/
2/---4-4-------4-----------1----1-------------0-0---------------/
3/----------------------------2---------------------------------/

1/--------0--2--0-----0-----/
2/---4-4-----------4--------/


para los pavos del jose malky

Fuente original ATAME [www.atame.org]
Colaborador original: Erwin Basilio Flores Paite [erwinflores_1625@hotmail.com]

Fuente: tusacordes.com