a b c d e f g h i j k l m n o p q r s t u v w x y z 0-9

Navidad

Canciones Populares

			
e-0-0-0--0-0-0--0-3-----0-------------
b-------------------1-3---------------
g-------------------------------------
d-------------------------------------
a-------------------------------------
e-------------------------------------

e-1-1-1--1-0-0--0-----0---3-----------
b-----------------3-3---3-------------
g-------------------------------------
d-------------------------------------
a-------------------------------------
e-------------------------------------

e-0-0-0--0-0-0--0-3-----0-------------
b-------------------1-3---------------
g-------------------------------------
d-------------------------------------
a-------------------------------------
e-------------------------------------

e-1-1-1--1-0-0--3-3-1-----------------
b---------------------3-1-------------
g-------------------------------------
d-------------------------------------
a-------------------------------------
e-------------------------------------

Fuente: tusacordes.com