a b c d e f g h i j k l m n o p q r s t u v w x y z 0-9

Mortal Kombat

Canciones Populares

			
 e|-------------0--------0---3---0----| 
  B|-----1---3-----3--1-1---1---1---1--| 
  G|-2-2---2---2-----------------------| 
  D|-----------------------------------| 
  A|-----------------------------------| 
  E|-----------------------------------|



  e|-----------------------------------| 
  B|-----0---1---3-1----------1---1-0--| 
  G|-0-0---0---0----------2------------| 
  D|------------------3-3---3---3------| 
  A|-----------------------------------| 
  E|-----------------------------------                                                                                                                  
  e|------------------------------------------------- 
  B|------------------------------------------------- 
  G|------------------------------------------------- 
  D|------------------------------------------------- 
  A|-0-0-0-0---3-0-0-0-0-----0-0-0-0---3-0-0-0-00000- 
  E|---------3-----------3-0---------3---------------

Fuente: tusacordes.com