a b c d e f g h i j k l m n o p q r s t u v w x y z 0-9

Mexican Hat

Canciones Populares

			
Misc - Mexican Hat Dance

-----------------------------------------------|
-----------------------------------------------|
-----------------------------------------------|
-7--7-7---7-7-7-6-7-9---6-6-6---6-6-6-4-6-7----|
7--7-7---7-------------7-7-7---7---------------|
-----------------------------------------------|

-----------------------------------------------|
---5-4-5---------------------------------------|
---------6-5-6------------------------4-6-7-4--|
----------------7-6-7-----------4-6-7----------|
------------------------7---4-5-7--------------|
-----------------------------------------------|

--------------------0-0-0-2-0------------------|
3-2-3-------------------------3-2-0------------|
------4-3-4-------------------------2----------|
------------1-0-1------------------------------|
-------------------2---------------------------|
-----------------------------------------------|

oso.caballito@hotmail.com

Fuente: tusacordes.com