a b c d e f g h i j k l m n o p q r s t u v w x y z 0-9

Merry Chrismas (navidad)

Canciones Populares

			
e|-------------|----0--------|-----------------------------------
B|----3-2-3-0--|--0---3-0----|----3-2-3-0---0-0-----0------------
G|--2----------|----------2--|--2---------0-----2-2---2-0-0------
D|-------------|-------------|------------------------------4----
A|-------------|-------------|-----------------------------------
E|-------------|-------------|-----------------------------------

e|-------------|----0--------|-----------------------------------
B|----3-2-3-0--|--0---3-0----|----3-2-3-0---0-0-----0------------
G|--2----------|----------2--|--2---------0-----2-2---2-0-0------
D|-------------|-------------|------------------------------4----
A|-------------|-------------|-----------------------------------
E|-------------|-------------|-----------------------------------

e|--2-2-2-2-0------------|--0-0-0-0--------------|
B|------------3-3-0-0-3--|----------3-0-0--------|
G|-----------------------|----------------2-1-2--|
D|-----------------------|-----------------------|
A|-----------------------|-----------------------|
E|-----------------------|-----------------------|

e|--2-2-2-2-0-----------0--------------------|--2-2-2-2-0--------
B|------------3-3-0-0-0---3-2-2-3-5-5/7\5-3--|-----------3-3-0--0
G|-------------------------------------------|-----------------3-
D|-------------------------------------------|-------------------
A|-------------------------------------------|-------------------
E|-------------------------------------------|-------------------

e|--0-0-0-0--------------|--2-2-2-2-0-----------0----------------
B|----------3-0-0--------|------------3-3-0-0-0---3-2-2-3-5-5-5-3
G|----------------2-1-2--|---------------------------------------
D|-----------------------|---------------------------------------
A|-----------------------|---------------------------------------
E|-----------------------|---------------------------------------Fuente: Tus acordes