a b c d e f g h i j k l m n o p q r s t u v w x y z 0-9

Martinillo

Canciones Populares

			
esta canción es para alguien que va empezando.

1------------------------------0--------
2----0-------0--0-1-3--0-1-3--3-3-1-0---
3-0-2-0--0-2--0-----------------------0-
4---------------------------------------
5---------------------------------------
6---------------------------------------

1--0---------------------
2-3--3-1-0---------------
3-----------2--0---2--0--
4------------0-------0---
5------------------------
6------------------------


 --------
                º-| ¤    ¤ |-º
                º-|  Tobe  |-º
                º-| ¤    ¤ |-º
                          /
                    |    |
        ·===========================·
        | mr_jefazo94@hotmail.com   |
        ·===========================·

Fuente: tusacordes.com