a b c d e f g h i j k l m n o p q r s t u v w x y z 0-9

Mario Bros

Canciones Populares

			
Intro

e|-0-0---0-----0---3----|
B|?----------1----------|
G|--------------------0-|
D|----------------------|
A|----------------------|
E|----------------------|


Parte 1

e|-------------------------0-3-5--1-3-0---------|
B|-1-----------0--------------------------1-3-0-|
G|----0-----2-----3-2--0------------------------|x2
D|-------2--------------------------------------|
A|----------------------------------------------|
E|----------------------------------------------|


Parte 2

e|-3-2-1----0----------------3-2-1----0--8--8-8|
B|-------4---------1----1-3--------4-----------|
G|-------------1-2----2------------------------|
D|---------------------------------------------|
A|---------------------------------------------|
E|---------------------------------------------|

e|-3-2-1----0----------------4---3---1---------|
B|-------4---------1----1-3--------------------|
G|-------------1-2----2------------------------|
D|---------------------------------------------|
A|---------------------------------------------|
E|---------------------------------------------|


Parte 3

e|--------------0--------------------0------------------0--------|
B|--1-1--1--1-3---1------1-1--1--1-3--------1-1--1--1-3---1------|
G|------------------2-0-------------------------------------2-0--|
D|---------------------------------------------------------------|
A|---------------------------------------------------------------|
E|---------------------------------------------------------------|
e|-0-0---0-----0---3----|
B|?----------1----------|
G|--------------------0-|
D|----------------------|
A|----------------------|
E|----------------------|


Parte 4 

e|-0---------1-1------5-5-5-3-1-0--------0---------1-1------1-1-1-0-----------|
B|---1--------------0-------------1--------1--------------0---------3-1-------|
G|-----0-1-2-----2------------------2-0------0-1-2-----2----------------------|
D|----------------------------------------------------------------------3-3---|
A|--------------------------------------------------------------------------4-|
E|----------------------------------------------------------------------------|
e|-------------------------0-3-5--1-3-0---------|
B|-1-----------0--------------------------1-3-0-|
G|----0-----2-----3-2--0------------------------|x2
D|-------2--------------------------------------|
A|----------------------------------------------|
E|----------------------------------------------|
e|-3-2-1----0----------------3-2-1----0--8--8-8|
B|-------4---------1----1-3--------4-----------|
G|-------------1-2----2------------------------|
D|---------------------------------------------|
A|---------------------------------------------|
E|---------------------------------------------|

e|-3-2-1----0----------------4---3---1---------|
B|-------4---------1----1-3--------------------|
G|-------------1-2----2------------------------|
D|---------------------------------------------|
A|---------------------------------------------|
E|---------------------------------------------|


e|--------------0--------------------0------------------0--------|
B|--1-1--1--1-3---1------1-1--1--1-3--------1-1--1--1-3---1------|
G|------------------2-0-------------------------------------2-0--|
D|---------------------------------------------------------------|
A|---------------------------------------------------------------|
E|---------------------------------------------------------------|

Fuente: Tusacordes