a b c d e f g h i j k l m n o p q r s t u v w x y z 0-9

Luna De Xelaju

Canciones Populares

			
LUNA DE XELAJU
|-------------------------------|
|------5-----5------------------|
|--6-7---7-6-------4-6-4----6---|
|----------------7--------7-----|

|---------------------------------|
|---------------------------------|
|-----4------------------------/7-|
|-6-7---7-6-7-7—7-7-6-4/7-7-6-4---|

|---------------------------|
|---------------------------|
|-4-6-7-6-4/7-------4-----4-|
|---------------6-7---7-6---|

|---------------------------------|
|---------------------------------|
|-----4-------------------------6-|
|-6-7---7-6-7-7—7-7-6-4/7-7-6-4---|

|-------------------------------|
|------5-----5------------------|
|--6-7---7-6-------4-6-4----6---|
|----------------7--------7-----|

|------------------------------------|
|----------------------------7-------|
|-----4--------------------67---6-4--|
|-6-7---7-6-5-5-5-5-4-4-5-7----------|

|----------------------------|
|-------------------------5--|
|---4-5-4---5-----4-5-4------|
|-7-------7-----7-------7----|

|--------------------------------------|
|-----5-------------7------------5-----|
|-6-7---7-6-6-4-3-4---7-6-4--4-6---6---|
|------------------------------------7-|Fuente: Tus acordes