a b c d e f g h i j k l m n o p q r s t u v w x y z 0-9

Los Pollitos Dicen

Canciones Populares

			
Los pollitos dicen
e --------------------------------------------- 
B -------6-8-8---------------------------------
G -5-7-9---------------------------------------
D ---------------------------------------------
A ---------------------------------------------
E ---------------------------------------------
 
   pio pio pio
e -5-8-5-8-------------------------------------
B ---------8-8---------------------------------
G ---------------------------------------------
D ---------------------------------------------
A ---------------------------------------------
E ---------------------------------------------

   cuando tienen hambre
e ---------------------------------------------
B -6-8-6-8-5-5---------------------------------
G ---------------------------------------------
D ---------------------------------------------
A ---------------------------------------------
E ---------------------------------------------

   cuando tienen frio
e ---------------------------------------------
B ---------------------------------------------
G -7-9-7-9-5-5---------------------------------
D ---------------------------------------------
A ---------------------------------------------
E ---------------------------------------------

   La gallina busca
e --------------------------------------------- 
B -------6-8-8---------------------------------
G -5-7-9---------------------------------------
D ---------------------------------------------
A ---------------------------------------------
E ---------------------------------------------
 
   el maiz y el trigo
e -5-8-5-8-------------------------------------
B ---------8-8---------------------------------
G ---------------------------------------------
D ---------------------------------------------
A ---------------------------------------------
E ---------------------------------------------

   les da la comida
e ---------------------------------------------
B -6-8-6-8-5-5---------------------------------
G ---------------------------------------------
D ---------------------------------------------
A ---------------------------------------------
E ---------------------------------------------

   y les presta abrigo
e ---------------------------------------------
B ---------------------------------------------
G -7-9-7-9-5-5---------------------------------
D ---------------------------------------------
A ---------------------------------------------
E ---------------------------------------------

Fuente: Tusacordes